themelvins.net bbs

MELVINS => Melvins Discussion => Melvins Lyrics & Tabs => Topic started by: Green Honey on November 29, 2004, 09:21:21 AM

Title: Melvins Tabs
Post by: Green Honey on November 29, 2004, 09:21:21 AM
Welcome to the most accurate collection of Melvins tabs, as far as I know of.
Please go ahead and post any missing tabs you've made or found elsewhere.
Ta.


EDIT also here: http://www.themelvins.net/wiki/index.php?title=Category:Tablature
Title: Melvins Tab
Post by: Green Honey on November 29, 2004, 10:53:32 AM
Eye Flys
(bass)

intro:

g-----------------|
d-----------------|
a-----------------|
e-------------0---|

g-----------------|-----------------|
d-----------------|-----------------|
a-----------------|-----------------|
e-1---0---2---0---|-2---3---2---0---|
Title: Melvins Tab
Post by: Green Honey on November 29, 2004, 03:31:43 PM
"Pigs of the Roman Empire"
*Live Version*

tune E string down to D


First Riff
E------------------------------------------------------------
B------------------------------------------------------------
G------------------------------------------------------------
d------------------------------------------------------------
a-------1-3-------------------1---gradually bend-------------
D-0---5-----3---5b--0-3-5-0----------------------------------


2nd Riff
E---------------------------------
B---------------------------------
G---------------------------------
d---------------------------------
a-----------------------3-----5---
D-0-0-0-0-0-0-0-0-0-0-0---5-3-----
Title: Melvins Lyrics + Tab of the Day
Post by: Green Honey on November 29, 2004, 07:54:52 PM
These sites are good for more tabs & lyrics:

http://taborama.com/archive/artist.php?id=1461&a=Melvins

http://mxtabs.net/songs.php?path=Guitar,m,9942,Melvins
http://mxtabs.net/songs.php?path=Bass,m,2310,Melvins
http://mxtabs.net/songs.php?path=Drums,m,10768,Melvins

http://ultimate-guitar.com/tabs/m/melvins.htm

http://thetabworld.com/Melvins_tabs_and_lyrics.html
Title: Melvins Tab
Post by: Green Honey on November 29, 2004, 09:40:08 PM
For You Darling
(from a bedroom recording, 1983)
 

<> = Pinch Harmonic
 
Intro:

b---------------------------------|---------------------------------|
g---------------------------------|---------------------------------|
d---------------------------------|---------------------------------|
a-----------------7-------7---5---|-----5-------5---4--<5>----------|
e-0-------0---0-------------------|-------------------------5-------|
Title: Melvins Tab
Post by: Green Honey on November 29, 2004, 09:45:16 PM
Mombius Hibachi

Riff 1 (play 4 times):
e ---------------------------------|---------------------------------|
b ---------------------------------|---------------------------------|
g ---------------------5-----------|-----------------5-------5-------|
d -----------------x---5-----------|-----------------5-------5-------|
a -0---0---3---0---x---3-----------|-0---0---3---0---3-------3---0---|
D -0---0---3---0-------------------|-0---0---3---0---------------0---|


Riff 2 (play twice):
e ---------------------------------|---------------------------------|
b ---------------------------------|---------------------------------|
g ---------------------------------|---------------------------------|
Title: Melvins Lyrics + Tab of the Day
Post by: Beto Brasil on November 30, 2004, 02:58:50 PM
maybe this link can help you,...

http://www.sing365.com/music/lyric.nsf/Melvins-lyrics/AF2A5692BD4BB81348256E14002B6A5B


 :shock:  :shock:  :shock:
Title: Melvins Lyrics + Tab of the Day
Post by: Green Honey on November 30, 2004, 05:12:14 PM
Thanks, Beto but that site never seems to work properly, eg. when i try to submit stuff
Title: Melvins Lyrics + Tab of the Day
Post by: Beto Brasil on December 01, 2004, 01:03:07 PM
Quote from: Green Honey
Thanks, Beto but that site never seems to work properly, eg. when i try to submit stuff


yeah, some letter are not online..
Title: Melvins Lyrics + Tab of the Day
Post by: Dog Tired on December 01, 2004, 01:39:44 PM
Damn dude...
 
I thought it was going to be on one every day/week/month whatever.. but you're putting one up like every minute.
Title: Melvins Lyrics + Tab of the Day
Post by: Green Honey on December 01, 2004, 02:34:46 PM
Quote from: Dog Tired
Damn dude...
 
I thought it was going to be on one every day/week/month whatever.. but you're putting one up like every minute.

Yeah it's more like an album a day.  :lol:  Would you like me to stop? I'm very open to suggestions in this case.
Title: Melvins Lyrics + Tab of the Day
Post by: Dog Tired on December 01, 2004, 04:51:23 PM
No sir keep going....

It gives me something to read / waste time / keeping me from doing my homework.

EDIT*

Perhaps some stuff from the Jello Comp...
Title: Melvins Lyrics + Tab of the Day
Post by: Green Honey on December 01, 2004, 05:34:51 PM
Quote from: Dog Tired
No sir keep going....

It gives me something to read / waste time / keeping me from doing my homework.

EDIT*

Perhaps some stuff from the Jello Comp...

Nice choice. I've figured out a bit of "Enchanted Thoughtfist" already so I'll get doing the rest of that tomorrow.

EDIT: You do mean tabs, right? The lyrics are in the booklet
Title: Melvins Lyrics + Tab of the Day
Post by: Dog Tired on December 01, 2004, 07:26:23 PM
Quote from: Green Honey
Quote from: Dog Tired
No sir keep going....

It gives me something to read / waste time / keeping me from doing my homework.

EDIT*

Perhaps some stuff from the Jello Comp...

Nice choice. I've figured out a bit of "Enchanted Thoughtfist" already so I'll get doing the rest of that tomorrow.

EDIT: You do mean tabs, right? The lyrics are in the booklet


Of course.
Title: Melvins Lyrics + Tab of the Day
Post by: Beto Brasil on December 02, 2004, 03:58:50 PM
you can try this,

http://www.lyrics007.com/Melvins%20Lyrics.html
Title: Melvins Lyrics + Tab of the Day
Post by: Beto Brasil on December 02, 2004, 04:00:05 PM
no no, below is better.
all albuns online....

http://www.stlyrics.com/songs/m/melvins17076.html
Title: Melvins Lyrics + Tab of the Day
Post by: Green Honey on December 02, 2004, 04:21:07 PM
Quote from: Beto Brasil
no no, below is better.
all albuns online....

http://www.stlyrics.com/songs/m/melvins17076.html


Obrigado uma vez outra vez, Beto!
Title: Melvins Lyrics + Tab of the Day
Post by: Beto Brasil on December 02, 2004, 04:29:13 PM
Quote from: Green Honey
Obrigado uma vez outra vez, Beto!


O seu portugu
Title: Melvins Tab
Post by: Green Honey on December 03, 2004, 10:36:24 AM
Nasty Dogs & Funky Kings
(ZZ Top)


intro
guitar 1
E-------------------------------
B-------------------------------
G-14-12----12-------------------
D-------14----14-13-12-10-10----
A----------------------------12-
E-------------------------------
guitar 2
E---------------------
B---------------------
G---------------------
D-7-5---5-------------
A-----7---7-6-5-3-3---
E-------------------5-

now together
E-----------------
B-----------------
G-----------------
D---------------3-
A-----0---3-2-0---
E-0-3---0---------

Title: Melvins Lyrics + Tab of the Day
Post by: Jess on December 03, 2004, 11:12:15 AM
i don't have a problem with you doing your thing just please stop posting em on the forum like it's stuff we want to discuss.  instead a post like "i have gathered the lyrics to houdini and brian put them on the lyrics page"
would be much better, imo.
Title: Melvins Lyrics + Tab of the Day
Post by: idiotboy on December 03, 2004, 09:06:44 PM
Quote from: steve ludlow
FUCKING CHRIST STOP POSTING THIS SHIT.  NOBODY CARES.  WRITE ALL THESE LYRICS IN A LITTLE BOOK AND KEEP THEM FOR YOURSELF BECAUSE NOBODY CARES!!!!!!!!!!!!!!


love,  
  your mama


Like Steve, Moanin' Ludlow!
Title: Melvins Tab
Post by: Green Honey on December 05, 2004, 09:44:11 AM
Jello Biafra & The Melvins
Title: Melvins Tab
Post by: Green Honey on December 05, 2004, 03:42:46 PM
"Enchanted Thoughtfist"


Intro
 
Title: Melvins Lyrics + Tab of the Day
Post by: Green Honey on December 06, 2004, 02:39:50 PM
This one's for Steve!

If I Had An Exorcism


Intro [x = Finger mute.]
Title: Melvins Tab
Post by: Green Honey on December 16, 2004, 09:58:56 AM
I just noticed this tab needed some corrections.

Magic Pig Detective


(3m:33s)
Title: Melvins Tab
Post by: Green Honey on December 16, 2004, 04:54:32 PM
Boris
(bass)

Drop D Tuning

Intro (Play once only):
G|----------------------------
D|----------------------------
A|----------------------------
D|8-7-7-7-8-7-7-7-9b------8---

Then
G|----------------------------------
D|----------------------------------
A|----------------------------------
D|8-7-7-8-7-7-7-8-7-7-7-9b------8---

Repeat until
"It's like sin"

G|-------
D|-------
A|-------
D|8-7-7-8


Bridge:
G|-----------------------------
D|-----------------------------
A|-----------------------------
D|7-9-8-7-9-8-9-8-9-8-9-8-8-9-8

G|--------------------------------
D|--------------------------------
A|--------------------------------
D|7-7-8-7-7-8-7-7-8-7-7-8-7-7-9---

G|-----------------------
D|-----------------------
A|-----------------------
D|7-9-8-7-9-8-9-8-9-8-9-8

G|--------------------------------
D|--------------------------------
A|--------------------------------
D|7-7-8-7-7-9(hold)------------7-8

Back to main riff.
Title: Melvins Lyrics + Tab of the Day
Post by: anaconda on January 08, 2005, 09:41:05 AM
one correction:

When man's only distant relative
"Has to send it on his own"

should be:

"Has descended on his own"
Title: Melvins Lyrics + Tab of the Day
Post by: DubEMC on January 08, 2005, 08:57:42 PM
Yo Green, you sending me discs anytime soon?
Title: Melvins Lyrics + Tab of the Day
Post by: anaconda on January 08, 2005, 09:13:40 PM
is he taking his sweet time too?  :lol:
mine finally went in the mail on friday to you
with a little booklet full of pics. we had fun making
them too.
Title: Melvins Lyrics + Tab of the Day
Post by: DubEMC on January 08, 2005, 09:15:43 PM
Thanks Conda! Looking forward to it.
Title: Melvins Lyrics + Tab of the Day
Post by: anaconda on January 08, 2005, 09:21:51 PM
we actually went thru two solid weeks of blizzards
and freezing rain, nothing better to do!! haha
Title: Melvins Lyrics + Tab of the Day
Post by: Rembrandt Pussyhorse on January 09, 2005, 06:50:54 AM
Ive found some lyrics for HAT right here that seem pretty acurate:
http://www.dyingdays.net/Melvins/Letras_Hostile_Ambient_Takeover.html
Title: Melvins Lyrics + Tab of the Day
Post by: Rembrandt Pussyhorse on January 09, 2005, 07:08:37 AM
..they have a lot more actually http://www.dyingdays.net/Melvins/discografia.html

click "letras" above any album to get to the lyrics
Title: Melvins Tab
Post by: Green Honey on January 09, 2005, 07:52:16 AM
Cow

Riff 1 - play 2x
e|--------------------------------
b|--------------------------------
g|--------------------------------
d|-----------------2------2-------
a|-2-0-------------2------2-------
e|-----2-0-2-0-3^--0------0---0-0-

e|--------------------------------
b|--------------------------------
g|--------------------------------
d|-----------------2------2-------
a|-------2---------2------2-------
e|-3-3-5---5-3-5-5-0------0---0-0-

Riff 2 - play 4x
e|------------------------------------------------------
b|------------------------------------------------------
g|-5----------------------------------------------------
d|-5-----------------------------------2----------------
a|-3-----------------------------------2----------------
e|-------------------------------------0----------------

Riff 3 - play 4x
e|---------------------------------------------------------------
b|---------------------------------------------------------------
g|---------------------------------------------------------------
d|---------------------------------------------------------------
a|-2---2-------2-------2-------3-------2---2-------3-3---3-x-3---
e|-0---0---0-0-0---0-0-0---0-0-1---0-0-0---0---0-0-1-1-0-1-x-1---
           . .     . .     . .     . .         . .     .
e|---------------------------------------------------------------
b|---------------------------------------------------------------
g|---------------------------------------------------------------
d|-----------------------------------------------------------3---
a|-2---2-------2-------2-------3-------2---2-------3-3---3-x-1---
e|-0---0---0-0-0---0-0-0---0-0-1---0-0-0---0---0-0-1-1-0-1-x-----
           . .     . .     . .     . .         . .     .
Title: Melvins Lyrics + Tab of the Day
Post by: klump on February 08, 2005, 01:45:17 AM
honey, can you tab night goat ?
im trying to lpay it with the drummer in my band but he says that something is missing(i think so to) and i dont know all the guitar stuff.
i mostly play the bass parts :)
Title: Melvins Tab
Post by: Green Honey on June 02, 2005, 09:53:48 AM
Lizzy


tabbed by baggins + greenhoney
 
Standard Tuning
 
~ = Bend
\ = Slide Down
/ = Slide Up
()= Harmonics

VERSE
E ----------------
B ----------------
G --2-------------
D --2---2--4--4---
A --0---0--0--3---
E ----------------
 
CHORUS

E ----------------------------------------------------------
B ----------------------------------------------------------
G -----------7-6-----6---6-6-6------------------------------
D -2-2-2-2---7-6-----6---6-6-6------------------------------
A -2-2-2-2---5-4-----4---4-4-4------------------------------
E -0-0-0-0--------------------------------------------------
 
SOLO
E ----------------------------------------------------------
B -------------5~~-----------7~~~----8\7--------------------
G ---------5---5~~---5---5-x-7~~~----8\7--5-----------------
D -2/7---7---x---------7---------------------7--5-7---------
A -0--------------------------------------------------------
E ----------------------------------------------------------

END

E ------------------------------------------------
B ------------------------------------------------
G ------------------------------------------------
D –(7)-------------(7)-------------(7)------------
A –----(7)-(12)--------(7)-(12)--------(7)-(12)---
E ------------------------------------------------


E ----------------------------------------------------------
B ------------------------(12)------------------------------
G -------------------(12)-----------------------------------
D –(7)----------(12)----------------------------------------
A –----(7)-(12)---------------------------------------------
E -----------------------------(12)-------------------------
Title: Melvins Tab
Post by: Green Honey on June 13, 2005, 06:21:35 PM
The Bloated Pope

tune down to C

riff 1
-------------------------------------------------------------
-------------------------------------------------------------
-------------------------------------------------------------
------------------------------7-----------------5--------7---
-------------3----------------5-----------------3--------5---
0-0---0---00-1-0-0-0---0---00----0-0-0-0-0-0-0-----0-0-3-----

riff 2
-------------------------------------------------------------
-------------------------------------------------------------
--------------------------------555555--------555555---------
0--0-0--3---3-33-55555556---6-66------6---6-66------6-5-6-3--
Title: Melvins Tab
Post by: Green Honey on June 13, 2005, 06:31:44 PM
At The Stake


  (4/4)

INTRO: Build feedback in the key of E.


 Intro Riff

    1  +  2     3     4  +    1     2     3     4     
 E|-------------------------|-------------------------|
 B|-------------------------|-------------------------|
 G|-------------------------|-------------------------|
 D|-2--2--------------2--2--|-------------------------|
 A|-2--2--Ring--------2--2--|--Ring-------------------|  x4
 E|-0--0--------------0--0--|-------------------------|

    1  +  2  +  3  +  4  +    1     2     3     4     
 E|-------------------------|-------------------------|
 B|-------------------------|-------------------------|
 G|-4/-5--5--5--5-----------|-------------------------|
 D|-4/-5--5--5--5--0--2--2--|-------------------------|
 A|-2/-3--3--3--3—-0--2--2--|--Ring + Bend Neck Down--|
 E|-------------------0--0--|-------------------------|


 Main Riff - play 4x without palm mute

    1  +  2  +  3  +  4       1     2     3     4  +   
 E|-------------------------|-------------------------
 B|-------------------------|-------------------------
 G|-------------------------|-------------------------
 D|-2--2-----2--2--4--5-----|-------------------5-----
 A|-2--2-----2--2--4--5-Ring...-----------------5-----
 E|-0--0-----0--0--2--3-----|-------------------3--0--

    1  +  2  +  3  +  4  +    1     2     3     4     
 E|-------------------------|-------------------------|
 B|-------------------------|-------------------------|
 G|-4/-5--5--5--5-----------|-------------------------|
 D|-4/-5--5--5--5--0--2--2--|-------------------------|
 A|-2/-3--3--3--3—-0--2--2--|--Ring + Bend Neck Down--|
 E|-------------------0--0--|-------------------------|


This is the main riff also used for the Verse, palm muted.
       
The last time it's played before the bridge
 you rest for a bar after the playing the first bar.


Bridge

 E|-------------------------|-------------------------
 B|-------------------------|-------------------------
 G|-7—-7--7--7--7--7--7--7--|-7—-7--7--7--7--7--7-----
 D|-7—-7--7--7--7--7--7--7--|-7—-7--7--7--7--7--7--0--
 A|-5--5--5--5--5--5--5--5--|-5--5--5--5--5--5--5--0--
 E|-------------------------|-------------------------

    1  +  2  +  3  +  4  +    1     2     3     4     
 E|-------------------------|-------------------------|
 B|-------------------------|-------------------------|
 G|-4/-5--5--5--5--5-----4--|-------------------------|
 D|-4/-5--5--5--5--5--0--4--|--Ring-------------------|
 A|-2/-3--3--3--3--3--0--2--|-------------------------|
 E|-------------------------|-------------------------|


"Chased know any reason..."
    1     2  +  3  +  4  +    1  +  2  +  3     4     
 E|-------------------------|-------------------------|
 B|-------------------------|-------------------------|
 G|-------------------------|-------------------------|
 D|-2--------2--2-----3-----|----3--3--3--3-----3-----|
 A|-2--------2--2--0--3-----|----3--3--3--3-----3--0--|
 E|-0--------0--0--0--1-----|----1--1--1--1-----1--0--|

    1     2  +  3  +  4  +    1  +  2  +  3     4     
 E|-------------------------|-------------------------|
 B|-------------------------|-------------------------|
 G|-------------------------|-------------------------|
 D|-4----(4)----4-----5-----|----5--5--5--5--5--5-----|
 A|-4----(4)----4--0--5-----|----5--5--5--5--5--5--0--|
 E|-2----(2)----2--0--3-----|----3--3--3--3--3--3--0--|

    1     2  +  3  +  4  +    1  +  2  +  3     4     
 E|-------------------------|-------------------------|
 B|-------------------------|-------------------------|
 G|-------------------------|-------------------------|
 D|-2--------2--2-----3-----|----3--3--3--3-----3-----|
 A|-2--------2--2--0--3-----|----3--3--3--3-----3--0--|
 E|-0--------0--0--0--1-----|----1--1--1--1-----1--0--|

    1     2  +  3  +  4  +    1     2     3     4       1     2     3     4     
 E|-------------------------|-------------------------|-------------------------|
 B|-------------------------|-------------------------|-------------------------|
 G|-------------------------|-------------------------|-------------------------|
 D|-4----(4)----4-----5-----|-------------------------|-------------------------|
 A|-4----(4)----4--0--5-----|--Ring.....--------------|--(Ring).....------------|
 E|-2----(2)----2--0--3-----|-------------------------|-------------------------|


       Then Main Riff returns,
       the rest you can figure out by yourself
Title: Melvins Tab
Post by: Green Honey on June 14, 2005, 04:35:41 AM
"BUMBERSHOOT" by PORN (THE MEN OF)


Tune down a step (CBCFAD)

INTRO RIFF - play 4X:
D|-----------------------------------------------------------------
A|-----------------------------------------------------------------
F|-----------------------------------------------------------------
C|---------10~~~~~---------7~~~~~~---------10--7-------7---7---7---
B|-0---0---8~~~~~~-0---0---5~~~~~~-0---0---8---5-------5---5---5---
C|-0---0-----------0---0-----------0---0---------------------------
   .   .           .   .           .   .

RIFF 2:
D|-----------------------------------------------------------------
A|-----------------------------------------------------------------
F|-----------------------------------------------------------------
C|-----------------------------------------------------------------
B|-7---7---7---7---7---7-------15\3-------3---5---3---6-------5----
C|-7---7---7---7---7---7-------15\3-------3---5---3---6-------5----

RIFF 3 (MAIN RIFF):
D|-----------------------------------------------------------------
A|-----------------------------------------------------------------
F|-----------------------------------------------------------------
C|-----------------------------------------------------------------
B|-0-------0---3-------0---3---3---0-------0---3-------0---3---3---
C|-0-------0---3-------0---3---3---0-------0---3-------0---3---3---

"SOLO" rough estimation:
D|-------------------------------------------------
A|-------------------------------------------------
F|-17~~~~~-17~~~~~-17~~~~~-16~~~~~-16~~~~~-16~~~~~-
C|-15------15------15------14------14------14------
B|-------------------------------------------------
C|-------------------------------------------------

THEN VERSE

THEN FAST SECTION:
D|-------------------------------------|------------------
A|-------------------------------------|------------------
F|-------------------------------------|------------------
C|-2---2---2---2---2---2---2---2---2---|-5-----7-----5----
B|-0---0---0---0---0---0---0---0---0---|-3-----5-----3----
C|-------------------------------------|------------------

                                      -|------------------
                                      -|------------------
                                      -|------------------
                                      -|-3-----3-----5----
                                      -|-3-----3-----5----

BACK TO MAIN RIFF
AND SO ON.
Title: Melvins Tab
Post by: Green Honey on June 14, 2005, 11:05:28 AM
Here's a corrected version of With Teeth

Intro
e|---------------------------------|---------------------------------|
b|---------------------------------|---------------------------------|
g|---------------------------------|---------------------------------|
d|---------------------------------|---------------------------------|
A|-0-0-0-0-0-0-0-0-0-0-0-0-0-0-0-0-|-0-0-0-0-0-0-0-0-0-0-0-0-0-0-0-0-|
D|-0-0-0-0-0-0-0-0-0-0-0-0-0-0-0-0-|-0-0-0-0-0-0-0-0-0-0-0-0-0-0-0-0-|
Title: Melvins Tab
Post by: Green Honey on June 14, 2005, 11:06:55 AM
and this is my version of Teet

Play this 2x
b-------------------------|
g-------------------------|
d-----------------10------|
a-0-0-0-0-0-9-0-0-8-------|
d-0-0-0-0-0-9-0-0---------| Then 4 bars of feedback
Title: Melvins Lyrics + Tab of the Day
Post by: Pringles on June 14, 2005, 01:16:08 PM
nice job
Title: Melvins Lyrics + Tab of the Day
Post by: klump on June 14, 2005, 02:13:12 PM
that looks much better! thanks!  :)
Title: Melvins Lyrics + Tab of the Day
Post by: Green Honey on June 15, 2005, 07:14:24 AM
Welcome  8)
Title: Melvins Tab
Post by: Green Honey on August 11, 2005, 02:53:43 PM
Pitfalls In Serving Warrants

intro/riff 1
 
Title: Melvins Lyrics + Tab of the Day
Post by: zach on August 11, 2005, 05:56:29 PM
This thread is fuckin great! Thanks man! *grabs old crappy acoustic* hehe
Title: Melvins Lyrics + Tab of the Day
Post by: Green Honey on August 11, 2005, 07:05:55 PM
pleased to hear it!

some other nice places for tabs:  
:arrow: http://www.taborama.com/archive/artist.php?id=1461&a=Melvins

:arrow: http://www.mxtabs.net/songs.php?path=Guitar,m,9942,Melvins
Title: Melvins Tab
Post by: Green Honey on August 11, 2005, 07:22:12 PM
Found this at www.ultimate-guitar.com (http://www.ultimate-guitar.com)

Plethysmograph
Jello Biafra & The Melvins

Tabbed By: Jared Estes

Intro
Fill
Title: Melvins Tab
Post by: Green Honey on August 17, 2005, 07:11:54 AM
ISABELLA
Title: Melvins Tab
Post by: Green Honey on August 27, 2005, 08:26:24 AM
Oven (Drums)

Code: [Select]
Tabbed by Ryan (ragezer@aol.com)


Play everything once unless noted otherwise.

C |-X----------------X--X--|
Ht|--------------------o---|
Ft|---o-o-o-o-o-o-o-o--o---|
S |-o-------o-------o------|
B |-o-o-o-o-o-o-o-o--o--o--|

C |-X----------------X--|
Ht|---------------------|
Ft|---o-o-o-o-o-o-o-o---|
S |-o-------o-------o---|
B |-o-o-o-o-o-o-o-o--o--|

C |-X----------------X--X--|
Ht|--------------------o---|
Ft|---o-o-o-o-o-o-o-o--o---|
S |-o-------o-------o------|
B |-o-o-o-o-o-o-o-o--o--o--|

C |-X-------------X-----------X--|
Ht|---------o---o----------ooo---|
Ft|---------o---o----------ooo---|(2x)
hh|---x---x---x------x---x-------|
S |------------------------------|
B |-o-------------o--------oooo--|

C |-X-------------X------------------|
Ht|---------o---o----------oooo-oooo-|
Ft|---------o---o----------oooo-oooo-|
hh|---x---x---x------x---x-----------|
S |----------------------------------|
B |-o-------------o--------oooo-oooo-|


hh|-X---x---x-X---X---X--X---X------------------|
S |-o--------------------o---o------------------|(3x)
B |-oo--------o---o---o------oo------oo------oo-|


C |---X----------------------X---------|
Ft|-o----------------------o-----------|
hh|-----x-x-x-x-x-X----X-------x-X-----|
S |-o-------o-----o----o---o-----o-----|
B |---o-----------oo---------o---oo----|

C |---X---------------X-------X-------X-------|
Ft|-o-----------------------------------------|
hh|-----x-x-x-x-x-x-x-----x-------x-------x---|
S |-o-------o-----o---o-------o-------o-------|
B |---o---------------o-o-o-o-o-o-o-o-o-o-o-o-|

C |--X---------------------------------|
Ht|--------------------------oooo-oooo-|
Ft|--------------------------oooo-oooo-|
hh|----x-x-x-x-x-x-x-X-X-x-x-----------|
S |------o-------o-------o-o-----------|
B |--o-----o---oo-oooo-o-----oooo-oooo-|
Pause between this and next riff

C |--X----------------------------|
Ht|--------------------------oooo-|
Ft|--------------------------oooo-|
hh|----x-x-x-x-x-x-x-X-X-x-x------|
S |------o-------o-------o-o------|
B |--o-----o---oo-oooo-o-----oooo-|
No Pause

C |--X---------------------------------------|
hh|----x-x-x-x-x-x-x-X-X-x-x-x---x---x---x---|
S |------o-------o-------o-o-o-------o-------|
B |--o-----o---oo-oooo-o-----o-o-o-o-o-o-o-o-|

C |-X-------X-------X-------X-------X-|
hh|-----x-------x-------x-------x-----|
S |-o-------o-------o-------o-------o-|
B |-o-o-o-o-o-o-o-o-o-o-o-o-o-o-o-o-o-|
Title: Melvins Tab
Post by: Green Honey on August 29, 2005, 07:19:18 PM
Found this more accurate version of

Vile
Tabbed by an17nin17

Tuning - low to high - D, A, D, G, B, E

Intro -

|---|
|---|
|---|
|-0-| This is some very quiet feedback
|-0-|
|-0-|

|---------------------------------------------------------------|
|---------------------------------------------------------------|
|---------------------------------------------------------------|
|-3^~~-0~~-0-0-3^~~-0-3^~~-0~~-6~~-5~~-0-0-3^~~-0-0-6~~---------| x2
|-3^~~-0~~-0-0-3^~~-0-3^~~-0~~-6~~-5~~-0-0-3^~~-0-0-6~~-6~~-5~~-|
|-3^~~-0~~-0-0-3^~~-0-3^~~-0~~-6~~-5~~-0-0-3^~~-0-0-6~~---------|
 
Title: Melvins Tab
Post by: Green Honey on August 29, 2005, 07:20:59 PM
Jew Boy Flower Head  
(bass)

^^full bend
^ bend
\ slide
~ hold

swing rhythm


Riff A
G---------------------------------|-----------------
D---------------------------------|-----------------
A---------------------------------|-5-----------7---
E-0-----3-----0-----5-----7---6---|-------7---5-----


"....it's later than you think....."

Riff B
G---------|-------------|---------|-----------------
D---------|-------------|---------|-----------------
A-3(13x)--|-------0-3-0-|-5(12x)--|-----------------
E---------|-3\5---------|-------0-|-3~~---2-----6---



Repeat all of the above once more.
End with intro.
Title: Melvins Tab
Post by: Green Honey on August 29, 2005, 07:42:22 PM
Way of the World
(bass)


intro
g -----------------
d -5-5-5-5-5-5-5-5-
a -5-5-5-5-5-5-5-5- etc
e -----------------

riff
g ----------------------------------------------------------------
d --------------------------------5-5-5-5-5-5-5-5-7-7-7-7-7-7-7-7-
a ----------------5-5-5-5-5-5-5-5---------------------------------
e 5-5-5-5-5-5-5-5-------------------------------------------------

g -----------------
d -----------------
a -8-8-8-8-8-8-7-5-
e -----------------
Title: Melvins Tab
Post by: Green Honey on August 30, 2005, 06:05:22 AM
Missing
(bass)

g|----------------------------------------------------
d|----------------------------------------------------
a|-12-------------------------------------------------
e|--------------------------------------------5---4---
 
Title: Melvins Tab
Post by: Green Honey on September 01, 2005, 12:30:35 PM
Bricklebrit

Gb|--------------------------------------|  (x3)
Db|--------------------------------------|
Ab|-------------4-3----------------------|
Eb|-44444444444------33333333333-3030303-|


Gb|--------------------------------------|
Db|--------------------------------------|  (x1)
Ab|-3-4-3-2-3-4-3-2----------------------|
Eb|------------------55555---------------|


in between here there is some kind of noise...

repeat above bars.

that noise again.

then play them again.

finally, play this:
Gb|--------------------------------------|
Db|--------------------------------------|  (x1)
Ab|--------------------------------------|
Eb|-77777777777777777777777777777--------|
Title: Melvins Tab
Post by: Green Honey on September 12, 2005, 06:17:22 AM
Now for a corrected version of

Heaviness Of The Load

Drop D tuning
 
Title: Melvins Tab
Post by: Green Honey on October 04, 2005, 03:04:41 PM
Pearl Bomb
(bass)

part 1, main riff:
E|---------------------------------|---------------------------------
B|---------------------------------|---------------------------------
G|---------------------------------|---------------------------------
A|---------------------------------|---------------------------------
E|-0-0-0-0-0-7-0-6~----------------|-0-2-0-5-0-0-0-0-0-2-0-3-0-0-0-0-

E|---------------------------------|
B|---------------------------------|
G|---------------------------------|
A|---------------------------------|
E|-0-2-3-2-3-2-3-0-2-1-2-1-2-1-2-0-|


part 2
E|---------------------------------|-------------------------------|
B|---------------------------------|-------------------------------|
G|---------------------------------|-------------------------------|
A|---------------------------------|-------7---7-----------7---7---|
E|-0-0-0-1-0-1-0-0-4-3-3-0\7-7-6---|-0-6-0---7---6-6-0-6-0---7---6-|


part 3 - play 5 times
E|-------------------------------------|
B|-------------------------------------|
G|-------------------------------------|
A|-------------------------------7-6---|
E|-0-0-0-0-0-0-0-0-0-0-0-0-0-0-0-----0-|


Outro
E|---------------------------------------|
B|---------------------------------------|
G|-9-8---9-8---9-8---9-8---9-8---8---8-8-|
A|-7-6---7-6---7-6---7-6---7-6---6---6-6-|
E|---------------------------------------|
Title: Melvins Tab
Post by: Green Honey on October 04, 2005, 03:05:43 PM
Keep Away From Me
album:
Title: Melvins Tab
Post by: Green Honey on October 11, 2005, 03:31:29 AM
Artist: The Angels
Title: Can't Shake It
Album: No Exit
Transcribed by: Peter Schmidt
Email: rubberlips1@yahoo.com

------------------------------------------------------------------------------
------------------------------------------------------------------------------
------------------------------------------------------------------------------
--------------------------7v--------------------------7v----------------------
-9--9-----9----9--9---7h9-----9--9-----9----9--9--7h9-------------------------
-7--7-----7----7--7-----------7--7-----7----7--7------------------------------
Title: Melvins Tab
Post by: Green Honey on October 11, 2005, 04:06:13 AM
And now
Hostile Ambient Takeover
in all its glory...

(minus Little Judas Chongo...)


Black Stooges

Intro (4X):
 
Title: Melvins Tab
Post by: Green Honey on October 11, 2005, 04:06:51 AM
The Brain Center At Whipples

Riff 1: (play 3X)

  1   +   2   +   3   +   4   +     1   +   2   +   3   +   4   +
b---------------------------------|---------------------------------|
g---------------------------------|---------------------------------|
d---------------------------------|---------------------------------|
a---------7-----------------------|---------------------------------|
e-0---0---------0-0-0-3-0-0-5-0-0-|-6---0-0-1-0-0---0-0-1h0-3h0-3h0-|


  1   +   2   +   3   +   4   +     1   +   2   +   3   +   4   +
b---------------------------------|---------------------------------|
g---------9-----9-----------------|---------9-----9-----------------|
d---------9-----9-----------------|---------7-----7-----------------|
a---------7-----7-----------------|---------7-----7-----------------|
e-0---0-----------0-0-0-3-0-0-5-0-|-----0-----------0-0-0-3-0-0-5-0-|

Play this twice:

  1   +   2   +   3   +   4   +     1   +   2   +   3   +   4   +
b---------------------------------|---------------------------------|
g---------------------------------|---------------------------------|
d---------------------------------|---------------------------------|
a-7-7-7-7-7-7-7-7-7-7-7-7-7-7-7-7-|-7-7-7-7-7-7-7-7-7-7-7-7-7-7-7-7-|
e---------------------------------|---------------------------------|

Riff 2: (X2)

  1   +   2   +   3   +   4   +     1   +   2   +   3   +   4   +
b---------------------------------|---------------------------------|
g-9--9--9-----9-------------------|-7--7--7-----7-------------------|
d-9--9--9-----9-------------------|-7--7--7-----7-------------------|
a-7--7--7-----7-------------------|-5--5--5-----5-------------------|
e---------------------------------|---------------------------------|

  1   +   2   +   3   +   4   +     1   +   2   +   3   +   4   +
b---------------------------------|---------------------------------|
g---------------------------------|-----------------------------5---|
d---------------------------------|-----------------------------5---|
a-------------------3-----5---3---|-5-----6-----7-----5---7p5h7-----|
e-3----4------5-------------------|---------------------------------|

Verse: (X8)

  1   +   2   +   3   +   4   +     1   +   2   +   3   +   4   +
b---------------------------------|---------------------------------|
g---------------------------------|---------------------------------|
d---------------------------------|---------------------------------|
a-7---7-7-7-7---7-7-7-7-7-7-7-7-7-|-7---7-7-7-7---7-7-7-7-7-7-7-7-7-|
e---------------------------------|---------------------------------|

Then strum this 3X:

  1   +   2   +   3   +   4   +
b---------------------------------|
g-9--9--9-------------------------|
d-9--9--9-------------------------|
a-7--7--7-------------------------|
e---------------------------------|

Then back to Verse 2X
Back to Riff 2 (3X)

Then this X3:

b---------------------------------|
g---------------------------------|
d---------5-----------------------|
a-7p5h7p5-5-----------------------|
e---------------------------------|

Then:

  1   +   2   +   3   +   4   +     1   +   2   +   3   +   4   +
b---------------------------------|---------------------------------
g---------------------------------|---------------------------------
d-2-----------5-------------------|---------------------------------
a-2-----------5-------------------|---------------------------------
e-0-----------3-------------------|---------------------------------

  1   +   2   +   3   +   4   +     1   +   2   +   3   +   4   +
b---------------------------------|---------------------------------|
g-9-----------12------------------|---------------------------------|
d-9-----------12------------------|---------------------------------|
a-7-----------10------------------|---------------------------------|
e---------------------------------|---------------------------------|

Solo a:

  1   +   2   +   3   +   4   +     1   +   2   +   3   +   4   +
b---------------------------------|---------------------------------|
g-12b-----------------------------|-12------------------------------|
d-------------10~~~~~~~~~~~~~~~~--|-----11------11-11-11b12-11b12---|
a---------------------------------|---------------------------------|
e---------------------------------|---------------------------------|

  1   +   2   +   3   +   4   +
b---------------------------------|
g-9-------------------------------|
d-9-------------------------------|
a-7-------------------------------|
e---------------------------------|

Fill a:

  1   +   2   +   3   +   4   +     1   +   2   +   3   +   4   +
b---------------------------------|---------------------------------|
g---------------------------------|---------------------------------|
d---------------------------------|---------------------------------|
a-------------------------5---7---|---------------------------------|
e-6-----5---------5---3-----------|-5---7---5---2---3-----2---------|

  1   +   2   +   3   +   4   +     1   +   2   +   3   +   4   +
b---------------------------------|---------------------------------|
g---------------------------------|---------------------------------|
d---------------------------------|---------------------------------|
a---------3---------------5-------|-5---3---5-------3---------------|
e-3---2-----------5---3-----------|---------------------0-0-0-0-0-0-|

Solo b:

  1   +   2   +   3   +   4   +     1   +   2   +   3   +   4   +
b---------------------------------|---------------------------------|
g---------------------------------|---------------------------------|
d-------------9~~~~~~~~~~~~~~~~~~-|-~~~~~~~~~~~~~~~~~~~~~---8-------|
a-7-------------------------------|---------------------------------|
e---------------------------------|---------------------------------|

  1   +   2   +   3   +   4   +     1   +   2   +   3   +   4   +
b---------------------------------|---------------------------------|
g---------------------------------|---------------------------------|
d-------------11~~~~~~~~~~~~~~~~~-|-(11)~~~~~~~~~~~~~~~~~~~~~~~~~~~-|
a-12------------------------------|---------------------------------|
e---------------------------------|---------------------------------|

  1   +   2   +   3   +   4   +     1   +   2   +   3   +   4   +
b---------------------------------|---------------------------------
g-12------------------11----------|-12------------------9-----------
d-12------------------11----------|-12------------------9-----------
a-10------------------9-----------|-10------------------7-----------
e---------------------------------|---------------------------------

  1   +   2   +   3   +   4   +     1   +   2   +   3   +   4   +
b---------------------------------|---------------------------------|
g-12------------------11----------|-12------------------------------|
d-12------------------11----------|-12------------------------------|
a-10------------------9-----------|-10------------------------------|
e---------------------------------|---------------------------------|

Fill b:

  1   +   2   +   3   +   4   +
b---------------------------------|
g---------------------------------|
d---------------------------------|
a-------------------------5-------|
e-6-----5---------5---3-----------|

Solo c:

  1   +   2   +   3   +   4   +     1   +   2   +   3   +   4   +
b---------------------------------|---------------------------------
g---------------------------------|---------------------------------
d-----8---7-------7-------7---7b8-|-7---9---9b8-----7-------7---7---
a-7-----------9-------7-----------|-------------9-------7----h9-----
e---------------------------------|---------------------------------

  1   +   2   +   3   +   4   +     1   +   2   +   3   +   4   +
b---------------------------------|---------------------------------
g-9---8---7-------7-------7---8---|-9-------------------------------
d-------------9-------9-----------|---------------------------------
a---------------------------------|---------------------------------
e---------------------------------|---------------------------------

  1   +   2   +   3   +   4   +     1   +   2   +   3   +   4   +
b---------------------------------|---------------------------------
g-11--10--9-------9-------9---10--|-9---8---7-------7-------7-------
d-------------11------11----------|-------------9-------9-------9---
a---------------------------------|---------------------------------
e---------------------------------|---------------------------------

  1   +   2   +   3   +   4   +     1   +   2   +   3   +   4   +
b---------------------------------|---------------------------------|
g-7---9---7-------7---------------|---------9~~~~~~~~~~~~~~~~~~~~~--|
d-------------9-------9---8---7---|---------9~~~~~~~~~~~~~~~~~~~~~--|
a---------------------------------|-9---8---7~~~~~~~~~~~~~~~~~~~~~--|
e---------------------------------|---------------------------------|

  1   +   2   +   3   +   4   +
b---------------------------------|
g(9)~~~~~~~~~~~~~~~~~~~~~~~~~~~~~-|
d(9)~~~~~~~~~~~~~~~~~~~~~~~~~~~~~-|
a(7)~~~~~~~~~~~~~~~~~~~~~~~~~~~~~-|
e---------------------------------|

Riff 3: (2X)

  1   +   2   +   3   +   4   +     1   +   2   +   3   +   4   +
b---------------------------------|---------------------------------
g-9-----------9-----------9-------|-5-----5-----5-------------------
d-9-----------9-----------9-------|-5h7--h7----h7-------------------
a-7-----------7-----------7-------|-5-----5-----5-------------------
e---------------------------------|---------------------------------

  1   +   2   +   3   +   4   +     1   +   2   +   3   +   4   +
b---------------------------------|---------------------------------|
g---------------------------------|---------------------------------|
d---------------------------------|-----------------9---------------|
a-5h7-7-6-----5---7---------------|-5h7-7-6-----5-----------9-------|
e---------------------------------|---------------------------------|

Outro (12X) - Gradually builds speed:

  1   +   2   +   3   +   4   +     1   +   2   +   3   +   4   +
b---------------------------------|---------------------------------|
g---------9-----------------------|---------------------------------|
d---------9-----------------------|---------------------------------|
a---------7-----------------------|---------------------------------|
e-0---0---------0-0-0-3-0-0-5-0-0-|-6---0-0-1-0-0---0-0-1h0-3h0-3h0-|

End on this:

  1   +   2   +   3   +   4   +
b---------------------------------|
g---------9-----------------------|
d---------9-----------------------|
a---------7-----------------------|
e-0---0---------------------------|



__________________________________________________________________________________________________
Foaming

Written by Buzz Osborne and Kevin Rutmanis
 
Riff 1 (play 2X)
 
  1       2       3       4         1       2       3       4       
b---------------------------------|---------------------------------|
g---------------------------------|---------------------------------|
d-4-----------3-------------------|-4-------4---3-------------------|
a-2-----------1-------4---3---2---|-2---2---2---1-------------------|
e---------------------2---1---0---|-----0---------------------------|

b---------------------------------|---------------------------------|
g---------------------------------|---------------------------------|
d-4-----------3-------------------|-4-----------3-------------------|
a-2-----------1-------4---3---2---|-2-----------1-------------------|
e---------------------2---1---0---|---------------------------------|

Verse - play 7.5 times
 
  1       2       3       4         1       2       3       4         
b---------------------------------|---------------------------------|
g---------------------------------|---------------------------------|
d-----------------------------9^--|---------9---------------5^------|
a-7---7---7---7---7---7---x---7^--|---------7---x-x-5h7-------------|
e-0---0---0---0---0---0-----------|---------------------------------|
  .   .   .   .   .   .         

Then

  1       2       3       4         
b---------------------------------|
g---------------------------------|
d-----9^------9^------------------|
a-----7^------7^------0---5---7---|
e---------------------------------|
    / don't pluck, \
 just bend up and down

Bridge
 
  1       2       3       4         1       2       3       4         
b---------------------------------|---------------------------------|
g---------------------------------|---------------------------------|
d-----6---5-------6---5-----------|-----6---5-------6---------------|
a-5-----------7-----------5-------|-5-----------7-------0---5---7---|
e---------------------------------|---------------------------------|

b---------------------------------|---------------------------------|
g---------------------------------|---------------------------------|
d-----6---5-------6---5-------5---|-----6---5-------6---5-------5---|
a-5-----------7-----------5-------|-5-----------7-----------5-------|
e---------------------------------|---------------------------------|

b---------------------------------|---------------------------------|
g---------------------------------|---------------------------------|
d-7-------5---6-------------------|---------------------------------|
a---------------------7---5---7---|-----------------7-------6---5---|
e---------------------------------|-3---2---0-----------------------|

b---------------------------------|---------------------------------|
g---------------------------------|---------------------------------|
d---------------------------------|-7-------6---5-------------------|
a---------------------------------|---------------------7---6---5---|
e-----7---6---5---3---2---1---0---|---------------------------------|
   
b---------------------------------|---------------------------------|
g---------------------------------|---------------------------------|
d---------------------------------|---------------------------------|
a-----------------7-------5---6---|---------------------------------|
e-3---2---0-----------------------|-----7---5---7---3---2---1---0---|

Return to Verse

Then

b---------------------------------|---------------------------------|
g---------------------------------|---------------------------------|
d-----6---5-------6---5-----------|-----6---5-------6---------------|
a-5-----------7-----------5-------|-5-----------7-------0---5---7---|
e---------------------------------|---------------------------------|

b---------------------------------|---------------------------------|
g---------------------------------|---------------------------------|
d-----6---5-------6---5-------5---|-----6---5-------6---5-------5---|
a-5-----------7-----------5-------|-5-----------7-----------5-------|
e---------------------------------|---------------------------------|
  .   .   .   .   .   .   .   .     .   .   .   .   .   .   .   .               
 
b---------------------------------|
g---------------------------------|
d---------------------------------| 15X
a-7---7---7---7---7---7---7---7---|
e-0---0---0---0---0---0---0---0---|
  .   .   .   .   .   .   .   .     
 
  1       2       3       4         1       2       3       4         
b---------------------------------|---------------------------------|
g---------------------------------|---------------------------------|
d--------10\9----10\9--------12\11|--------10\9------------10\9-----|
a---------8\7-----8\7--------10\9-|---------8\7-------------8\7-----|
e-0---0--------0-------0--0-------|-0---0--------0---0---0-------0--|
  .   .        .       .  .         .   .        .   .   .       .
   
b---------------------------------|---------------------------------|
g----------------------------10\9-|---------------------------------|
d--------10\9----12\11--------8\7-|--------10\9------------10\9-----|
a---------8\7----10\9-------------|---------8\7-------------8\7-----|
e-0---0--------0-------0--0-------|-0---0--------0---0---0-------0--|
  .   .        .       .  .         .   .        .   .   .       .
 
b---------------------------------|---------------------------------|
g---------------------------------|---------------------------------|
d--------10\9----10\9--------12\11|--------10\9------------10\9-----|
a---------8\7-----8\7--------10\9-|---------8\7-------------8\7-----|
e-0---0--------0-------0--0-------|-0---0--------0---0---0-------0--|
  .   .        .       .  .         .   .        .   .   .       .
  1       2       3       4         1       2       3       4               
b---------------------------------|---------------------------------|
g---------------------------------|---------------------------------|
d--------10\9----10\9---------7---|-----7---7---7-/-9-------9-------|
a---------8\7-----8\7---------5---|-----5---5---5-/-7-------7-------|
e-0---0--------0-------0--0-------|---------------------------------|
  .   .        .       .  .         

Repeat those eight bars again

Then

  1       2       3       4         1       2       3       4         
b---------------------------------|---------------------------------|
g---------------------------------|---------------------------------|
d-10---------10-----------10------|----10-----------10------10------|
a-8----------8------------8-------|----8------------8-------8-------|
e---------------------------------|---------------------------------|
 
b---------------------------------|---------------------------------|
g---------------------------------|---------------------------------|
d-9---4--------3------7-----------|--------let-last-note-ring-------|
a-7---2--------1------5-----------|---------------------------------|
e---------------------------------|---------------------------------|
   
Drums and noise for 25 bars


Outro - played repeatedly for about 5 mins.

  1       2       3       4       1       2       3       4       
b-----------------------------------------------------------------|
g-----------------------------------------------------------------|
d-----------------------------------------------------------------|
a---------7-----------5---------------------------------------7---|
e-0---0-------6---7-----------7-------6---7-------8---7-----------|

b-----------------------------------------------------------------|
g-----------------------------------------------------------------|
d-----------------------------------------------------------------|
a---------7-----------5-----------------------7-------------------|
e-0---0-------6---7-------7---6---5---6---7-----------------------|
Title: Melvins Tab
Post by: Green Honey on October 11, 2005, 04:08:04 AM
The Anti-Vermin Seed

bassline:

Title: Re: Melvins Tabs (+ Lyrics)
Post by: Green Honey on October 18, 2005, 06:03:50 PM
Hog Leg

b bend
x finger mute
. palm mute


intro/bridge
    1   +   2   +   3   +   4   +   
  E----------------------------------|
  B----------------------------------|
  G----------------------------------|
  D----------------------------------|
  A----------------------------------|
  D---------------------5---7---12---|

  E-----------------------------------------------------------------
  B-----------------------------------------------------------------
  G-----------------------------------------------------------------
  D-----------------------------------------------------------------
  A-12b---------12b---------12b---------12b---------12b-----12b-----
  D-12b---------12b---------12b---------12b---------12b-----12b-----

  E-----------------------------------------------------------------
  B-----------------------------------------------------------------
  G-----------------------------------------------------------------
  D-----------------------------------------------------------------
  A-12b-x---x---12b-x---x---12b-x---x---12b-x---x---12b-x---x-------
  D-12b-x---x---12b-x---x---12b-x---x---12b-x---x---12b-x---x-------


verse - play 4x
  E-----------------------------------------------------------------
  B-----------------------------------------------------------------
  G-----------------------------------------------------------------
  D-----------------------------------------------------------------
  A-0-------0---0---0---0---0---0---0---0---0---0---0---0---0---0---
  D-0-------0---0---0---0---0---0---0---0---0---0---0---0---0---0---
            .   .   .   .   .   .   .   .   .   .   .   .   .   .
 
  E-----------------------------------------------------------------|
  B-----------------------------------------------------------------|
  G-----------------------------------------------------------------|
  D-----------------------------------------------------------------|
  A-12---------11----------12-----------14----------5-------6-------|
  D-12---------11----------12-----------14----------5-------6-------|

                                                  |-----------------|
                                                  |-----------------|
                             alternate with this  |-----------------|
                                                  |-----------------|
                                                  |-----------------|
                                                  |-12--5---7---12--|
                                                 
then bridge

then do this 6x
  E-----------------------------------------------------------------
  B-----------------------------------------------------------------
  G-----------------------------------------------------------------
  D-----------------------------------------------------------------
  A-0-0-0-0-0-0-0-0-0-0-0-0-0-0-0-0-0-0-0-0-0-0-0-0-0-0-0-0-0-0-0-0-
  D-0-0-0-0-0-0-0-0-0-0-0-0-0-0-0-0-0-0-0-0-0-0-0-0-0-0-0-0-0-0-0-0-
      x x x x x   x x x x x x x x x   x x x x x   x x x x x x x x x


high pitched feedback for a few seconds

then - 2x
  E-----------------------------------------------------------------
  B-----------------------------------------------------------------
  G-----------------------------------------------------------------
  D-5-5-5-5-5-5-5-5-6-6-6-6-6-6-6-6-7-7-7-7-7-7-7-7-8-8-8-8-8-8-8-8-
  A-5-5-5-5-5-5-5-5-6-6-6-6-6-6-6-6-7-7-7-7-7-7-7-7-8-8-8-8-8-8-8-8-
  D-----------------------------------------------------------------

  E-----------------------------------------------------------------
  B-----------------------------------------------------------------
  G-----------------------------------------------------------------
  D-9-9-9-9-9-9-9-9-101010101010101011111111111111111212121212121212
  A-9-9-9-9-9-9-9-9-101010101010101011111111111111111212121212121212
  D-----------------------------------------------------------------

and then - 4x 
  E-----------------------------------------------------------------
  B-----------------------------------------------------------------
  G-----------------------------------------------------------------
  D-121212121212121212121212120-0-0-121212121212121212121212120-0-0-
  A-121212121212121212121212120-0-0-121212121212121212121212120-0-0-
  D-----------------------------------------------------------------

and back to verse

outro
  E----------------------------------|-----------------------------------
  B----------------------------------|-----------------------------------
  G----------------------------------|-----------------------------------
  D----------------------------------|-----------------------------------
  A----------------------------------|-12b-------------------------------
  D---------------------5---7---12---|-12b-------------------------------

                                     |-----------------------------------
                                     |-----------------------------------
                                     |-----------------------------------
                                     |-----------------------------------
                                     |-5b--------------------------------
                                     |-5b--------------------------------


                                     |-----------------------------------
                                     |-----------------------------------
                                     |-----------------------------------
                                     |-----------------------------------
                                     |-----------------------------------
                                     |-more o that squealin feedback!!!!-

fin.
Title: Re: Melvins Tabs (+ Lyrics)
Post by: Green Honey on November 16, 2005, 08:59:35 AM
Bang My Head

these are the 3 parts.. order is pretty easy to figure out listening to the song

Part 1

e----------------------------------------------
b----------------------------------------------
g----------------------------------------------
d----------------------------------------------
a-5-5-5-5--6-6-6-6--5-5-5-5--6-6--6--5-5-------
e-3-3-3-3--4-4-4-4--3-3-3-3--4-4--4--3-3-------

Part 2

bang my head..
e------------------------------------------------
b------------------------------------------------
g------------------------------------------------
d--------------------------------------7-7-7-7-9-
a-7--5--2~--2-2--4-4-4--5-5-5--7-5-2---5-5-5-5-7-
e-5--3--0~--0-0--2-2-2--3-3-3--5-3-0-------------


Part 3

e--------------------------------------------------------
b--------------------------------------------------------
g------------------------------------------------7--5----
d-7-7-7-7--9-------------------------------------5--3----
a-5-5-5-5--7---7-7-7-7--7--7-7--9-9-9--10-10-10----------
e--------------5-5-5-5--5--5-5--7-7-7--8--8--8-----------


e-------------------------------------------
b-------------------------------------------
g-------------------------------------------
d-------------------------------------------
a-7-7-7-7--7--7-7--9-9-9--10-10-10--5~------
e-5-5-5-5--5--5-5--7-7-7--8--8--8---3~------


e-------------------------------------------
b-------------------------------------------
g-----------------------------------7-5-----
d-----------------------------------5-3-----
a-7-7-7-7--7--7-7--9-9-9--10-10-10----------
e-5-5-5-5--5--5-5--7-7-7--8--8--8-----------

e----------------------------------------------------
b----------------------------------------------------
g-----------------------------------7-5--------------
d-----------------------------------5-3--------------
a-7-7-7-7--7--7-7--9-9-9--10-10-10-------7-7-7-7-7-7-
e-5-5-5-5--5--5-5--7-7-7--8--8--8--------5-5-5-5-5-5-
Title: Re: Melvins Tabs (+ Lyrics)
Post by: Green Honey on November 21, 2005, 07:42:08 AM
Toy

e---------------------------------|---------------------------------
b---------------------------------|---------------------------------
g---------------------------------|-------------------------4h5p4---
d-2---2---0h2-2-2-2---2-2-3---2---|-3---2---0h2-2-2-3---2---------5-
a---------------------------------|---------------------------------
e---------------------------------|---------------------------------
 
e---------------------------------|---------------------------------
b---------------------------------|---------------------------------
g---------------------------------|---------------------------------
d-2---2---0h2-2-2-2---2-2-3---2---|-3---2---0h2-2-2-3-3-3-3-3-3-3-3-
a---------------------------------|---------------------------------
e---------------------------------|---------------------------------

alternate then end on

e ------------------|
b ------------------|
g ------------------|
d ------------------|
A-------------------|
E-3-3-3-3-3-3-3-3-2-|
Title: Re: Melvins Tabs (+ Lyrics)
Post by: Green Honey on November 22, 2005, 07:43:53 AM
The Melvins
amazon and AMAZON
from The Maggot LP

ben.nield@gmail.com

Drop-D Tuning

        "amazon"

 Verse:
|--------------------------------------------------------------|
|--------------------------------------------------------------|
|--------------------------------------------------------------|
|--------------------------------------------------------------|
|-0-0-0-0-0-0-0-0-0-0-0-3--4--3--0-0-0-0-0-0-6--6--x--6--6-3-0-|
|-0-0-0-0-0-0-0-0-0-0-0-3--4--3--0-0-0-0-0-0-6--6--x--6--6-3-0-|
  . . . . . . . . . . .          . . . . . .

 Chorus:
|--------------------------------------------------------------------------|
|--------------------------------------------------------------------------|
|-5--5-5-5-5-5-5-5-7--7-7-7-7-7-7-7-8--8-8-8-8-8-8-8-3--3-3-3/10--10-10-10-|
|-5--5-5-5-5-5-5-5-7--7-7-7-7-7-7-7-8--8-8-8-8-8-8-8-3--3-3-3/10--10-10-10-|
|-3--3-3-3-3-3-3-3-5--5-5-5-5-5-5-5-6--6-6-6-6-6-6-6-1--1-1-1/8---8--8--8--|
|--------------------------------------------------------------------------|

 Post-Chorus:
|----------------------------------|
|----------------------------------|
|----------------------------------|
|----------------------------------|
|-0-0-0-0-4-0-0-0-4-0-0-6--5--3--0-|
|-0-0-0-0-4-0-0-0-4-0-0-6--5--3--0-|
  . . . .   . . .   . .

 Play that a few times, then let this ring:
|----------------------------
|----------------------------
|-5--------------------------
|-5--------------------------
|-3--------------------------
|----------------------------


        "AMAZON"

 Intro/Verse:
|---------------------------------|
|---------------------------------|
|---------------------------------|
|---------------------------------|
|-0---0---0-0-0-0-0---0---0-0-0-0-|
|-0---0---0-0-0-0-0---0---0-0-0-0-|
  .   .   . . . . .   .   . . . .

 Main Riff:
|-----------------------------------------------------------------|
|-----------------------------------------------------------------|
|-----------------------------------------------------------------|
|-------------------------------------------------2---1-----------|
|---------0-0-0-0-6---5---0-0-0-0---------0-0-0-0---------0-0-0-0-|
|-2---1---0-0-0-0---------0-0-0-0-4---3---0-0-0-0---------0-0-0-0-|
          . . . .         . . . .         . . . .         . . . .

|-----------------------------------------------------------------|
|-----------------------------------------------------------------|
|-----------------------------------------------------------------|
|-5---4-----------------------------------------------------------|
|---------0-0-0-0---------0-0-0-0-6---5---0-0-0-0-6---5---0-0-0-0-|
|---------0-0-0-0-2---1---0-0-0-0---------0-0-0-0---------0-0-0-0-|
          . . . .         . . . .         . . . .         . . . .

 Post-Main Riff/Outro:
|-----------------------------------------------------------------|
|-----------------------------------------------------------------|
|-----------------------------------------------------------------|
|-----------------------------------------------------------------|
|-6---5---0-0-0-0-6---5---0-0-0-0-6---5---0-0-0-0-6---5---0-0-0-0-|
|---------0-0-0-0---------0-0-0-0---------0-0-0-0---------0-0-0-0-|
          . . . .         . . . .         . . . .         . . . .
Title: Re: Melvins Tabs (+ Lyrics)
Post by: sexualsidefx on December 03, 2005, 08:13:58 AM
can you do Let it all be?
Title: Re: Melvins Tabs (+ Lyrics)
Post by: Green Honey on December 04, 2005, 06:43:30 AM

a few people already did - here's the best version out there in my opinion:


LET IT ALL BE
   
Title: Re: Melvins Tabs (+ Lyrics)
Post by: Green Honey on December 16, 2005, 08:57:09 AM
Magic Pig Detective
(updated 15 December 2005)
Title: Re: Melvins Tabs (+ Lyrics)
Post by: Green Honey on December 16, 2005, 02:49:30 PM
Skin Horse

guitar tab by ben.nield@gmail.com
(updated 16 December 2005)

Standard Tuning

1st Part - Play 4x
Title: Re: Melvins Tabs (+ Lyrics)
Post by: Green Honey on December 21, 2005, 04:41:47 PM
Title: Re: Melvins Tabs (+ Lyrics)
Post by: Green Honey on February 09, 2006, 07:20:57 AM
Night Goat - full version with solo

ben.nield@gmail.com

Tuning - D, A, D, G, B, E

b bend
r release
^ bend
~ vibrato

Main Riff
|-----------------------|
|-----------------------|
|-----------------------|
|-0-1-3-3-3-3-0---0--4^-|
|-0-1-3-3-3-3-0---0--4^-|
|-0-1-3-3-3-3-0---0--4^-|

Verse

|-------------------------------|
|-------------------------------|
|-------------------------------|
|-7-7-7-7-7-7-7-7-7-7-7-7-7-7-7-|
|-5-5-5-5-5-5-5-5-5-5-5-5-5-5-5-|
|-------------------------------|
PM.............................

Pre-Chorus

|-------------------------------|
|-------------------------------|
|-------------------------------|
|-------------------------------|
|-1-1-1-1-1-1-1-1-1-1-1-1-1-1-1-|
|-1-1-1-1-1-1-1-1-1-1-1-1-1-1-1-|
PM.............................

Solo - something along the lines of:
 
|------------------------------------------------------------|
|------------------------------------------------------------|
|------------------------------------------------------------|
|-0-1-3-3-3-3---------10h12-10h12-10h14^---14b14b14r14^12~~~-|
|-0-1-3-3-3-3-/12^----10h12-10h12-10-14^---14b14b14r14^12~~~-|
|-0-1-3-3-3-3------------------------------------------------|

|------------------------------------------------------------|
|----------------12^---12^-12-12-12^12-12-12^--12-10---------|
|-11h12p11h12p11--------------------------------------12-12^-|
|-11h12p11h12p11---------------------------------------------|
|------------------------------------------------------------|
|------------------------------------------------------------|

|------------------------------------|
|------------------------------------|
|------------------------------------|
|-12-12^xx12---11--------------------|
|----------------xxx11-10--x---------|
|--------------------------x--12br---|

Outro

|-----------------------|-----------------------|
|-----------------------|-----------------------|
|-----------------------|-----------------------|
|-0-1-3-3-3-3-0---0--4^-|-0-1-3-3-3-3-0~~-------|
|-0-1-3-3-3-3-0---0--4^-|-0-1-3-3-3-3-0~~-------|
|-0-1-3-3-3-3-0---0--4^-|-0-1-3-3-3-3-0~~-------|
|     Play x 4          |
Title: Re: Melvins Tabs (+ Lyrics)
Post by: Green Honey on February 09, 2006, 07:23:01 AM
Eye Flys

ben.nield@gmail.com

/ = slide up
Title: Re: Melvins Tabs (+ Lyrics)
Post by: Kapila on February 10, 2006, 07:30:00 PM
Roman Dog Bird, please!
Title: Re: Melvins Tabs (+ Lyrics)
Post by: Bitches of Copacabana on February 11, 2006, 03:19:02 AM
That's funny... the second to last bar in Solo 1 for Tipping the Lion... did anybody else notice the smiley where the ghost note should be?

That's the way most Melvins songs are transcribed in my head anyways...

0h3  0h5  6p0  0  :o 0  :o 0  1p0  1p0  1p0  0 
Title: Re: Melvins Tabs (+ Lyrics)
Post by: Green Honey on February 11, 2006, 05:41:30 AM
Roman Dog Bird, please!
[Deleted, see tab below]

Title: Re: Melvins Tabs (+ Lyrics)
Post by: norecess on February 11, 2006, 06:51:10 AM
Hold that natural harmonic, and let your amp build up feedback, and, voila!
Into Infinity!!

 =D>
Title: Re: Melvins Tabs (+ Lyrics)
Post by: Kapila on February 11, 2006, 08:43:21 AM
Worked fine for me.

I'm learning it right now.  :-({|=
Title: Re: Melvins Tabs (+ Lyrics)
Post by: Green Honey on February 11, 2006, 09:22:00 AM
Worked fine for me.

I'm learning it right now. :-({|=
wicked
Title: Re: Melvins Tabs (+ Lyrics)
Post by: klump on February 11, 2006, 09:46:54 AM


Main Riff
|-----------------------|
|-----------------------|
|-----------------------|
|-0-1-3-3-3-3-0---0--4^-|
|-0-1-3-3-3-3-0---0--4^-|
|-0-1-3-3-3-3-0---0--4^-|       a variation between these two.

|-----------------------|                                           
|-----------------------|
|-----------------------|
|-0-1-3-3-3-3-0---0--5^-|
|-0-1-3-3-3-3-0---0--5^-|
|-0-1-3-3-3-3-0---0--5^-|

I think it goes like this  :-k
but Im not certain...
maybe the bass and guitar are playing different stuff...
Title: Re: Melvins Tabs (+ Lyrics)
Post by: Green Honey on February 11, 2006, 02:41:37 PM
ooh, the chairman of the pedantic society! :P
Title: Re: Melvins Tabs (+ Lyrics)
Post by: norecess on February 12, 2006, 07:23:47 AM
Roman Dog Bird, please!

It's funny a lot of people saw Roman Dog Bird. I also have problems not fucking it up.
Title: Re: Melvins Tabs (+ Lyrics)
Post by: Green Honey on February 12, 2006, 09:51:33 AM
Roman Dog Bird, please!

It's funny a lot of people saw Roman Dog Bird. I also have problems not fucking it up.
Yeah i thought it was called that for about 8 years until i saw the actual place it came from,
some fanclub newsletter i think it was.
Title: Re: Melvins Tabs (+ Lyrics)
Post by: Green Honey on February 13, 2006, 11:00:44 AM
here's my definitive version of
Roman Bird Dog/Hung Bunny


updated Sep 2009
 
Tuning: C-G-C-F-A-D

"Hung Bunny"

First get some feedback on this chord:
 |---------
 |---------
 |---------
 |-0-------
 |-0-------
 |-0-------

And play this sequence 4 times:

   1+a2+a3+a4+a+a+1+a2+a3+a4+a+a+1+a2+a3+a4+a+a+1+a2+a3+a4+a+a+1+a2+a3+a4+a+a
 ||---------------------------------------------------------------------------
 ||---------------------------------------------------------------------------
 ||(7)-7--7-/7-----7--7--7-/7-----7--7--7-/7-----7--7--7-/7-----7b-7b-7b-7b---
 ||(7)-7--7-/7-----7--7--7-/7-----7--7--7-/7-----7--7--7-/7-----7b-7b-7b-7b---
 ||(5)-5--5-/5-----5--5--5-/5-----5--5--5-/5-----5--5--5-/5-----5b-5b-5b-5b---
 ||-0--0--0-/0-----0--0--0-/0-----0--0--0-/0-----0--0--0-/0-----0--0--0--0----
  // - At first play this very loosely   -   Improvise the rhythm a little - \\     
  
   1+a2+a3+a4+a+a1+a2+a3+a4+a+a1+a2+a3+a4+a+a1+a2+a3+a4+a+
 |--------------------------------------------------------
 |--------------------------------------------------------
 |-5-----5--5--5--5----5--5b----5-/7---7--7-\-------------
 |-5-----5--5--5--5----5--5b-0--5-/7---7--7-\6------------
 |-3-----3--3--3--3----3--3b-0--3-/5---5--5-\6------------
 |---------------------------0---------0--0--6------------

   1+a2+a3+a4+a1+a1+a2+a3+a4+a1+a1+a2+a3+a4+a1+a1+a2+a3+a4+a+
 |-----------------------------------------------------------||
 |-----------------------------------------------------------||
 |----------------------3-----3--3--3--3----3--3--3b---/7----||
 |-0--0--1--1--1--1b-0--3-----3--3--3--3----3--3--3b-2-/7----||
 |-0--0--1--1--1--1b-0--3-----1--1--1--1----1--1--1b-2-/5----||
 |-0--0--1--1--1--1b-0-------------------------------0--0----||


Then after you've played that 4 times,
instead of playing the last chord, go to the next section.
This is where the drums come in:
 |-----------------------------------------------
 |-----------------------------------------------
 |-5-R-------------------------------------------
 |-5-R--------------------0-R-------------------- play 6x
 |-3-R--------------------0-R--------------------
 |------------------------0-R--------------------

The last chord above is where Dale does the cymbal roll.
After this chord is held for a short time, play the main riff/verse of "Roman Dog Bird", which is as follows:

Play it 8 times first time, 4 times second time:


"Roman Dog Bird"

 |-------------------------------------------------------------------|
 |-------------------------------------------------------------------|
 |-------------------------------------------------------------------|
 |-0-0-0-0-0-0-0-0-0-0-0-1---1---1-0-0-0-0-0-0-0-0-0-0-0-6---6---6---|
 |-0-0-0-0-0-0-0-0-0-0-0-1---1---1-0-0-0-0-0-0-0-0-0-0-0-6---6---6---|
 |-0-0-0-0-0-0-0-0-0-0-0-1---1---1-0-0-0-0-0-0-0-0-0-0-0-6---6---6---|
   . . . . . . . . . . .           . . . . . . . . . . .

"She looks like a well-worn one" part: (skip the last chord above when going into this)
 |---------------------------------|---------------------------------
 |---------------------------------|---------------------------------
 |---------------------------------|---------------------------------
 |-3-----3-----3-3---3-3---1-------|-1-~-----------------------------
 |-3-----3-----3-3---3-3-3-1-3-1-3-|-1-~-----------------------------
 |-3-----3-----3-3---3-3-3---3-1-3-|-1-~-----------------------------

 |---------------------------------|----------------------------------
 |---------------------------------|----------------------------------
 |-------------------------------8-|-7-----------------------5----6-7-
 |-0---0-0-0-0-0-6---6-6-0-6-0-6-8-|-7-0-0-0-0-0-0-6---1-----5----6-7-
 |-0---0-0-0-0-0-6---6-6-0-6-0-6-6-|-5-0-0-0-0-0-0-6---1-----3----4-5-
 |-0---0-0-0-0-0-6---6-6-0-6-0-6---|---0-0-0-0-0-0-6---1--------------
           .   .                       . . . .

                                                 1   2   3   4  
 |---------------------------------------------|-------------------|
 |---------------------------------------------|-------------------|
 |-------------3---3-3---3---3-----------------|---R---------------|
 |-0-0-0-0-0-0-3---3-3-3-3-3-3-3-2-2-2-2-2-2-2-|-6-R---------------|
 |-0-0-0-0-0-0-1---1-1-3-1-3-1-----2-2-2-2-2-2-|-6-R---------------|
 |-0-0-0-0-0-0---------1---1-------0-0-0-0-0-0-|-6-----------------|
         .   .                         . . . .

   1   2   3   4    1   2   3   4    1   2   3   4    1   2   3   4 +  
 |---------------------------------|--------------------------------------|
 |---------------------------------|--------------------------------------|
 |---------------------------------|--------------------------------------|
 |-1-R-----------------------------|--------------------------------3b\(0)|
 |-1-R-----------------------------|--------------------------------3b\(0)|
 |-1-R-----------------------------|--------------------------------3b\(0)|
 |Just play up to here second time>|

Once you've got this far return to the Verse and play it all again.

Proceed to the next bar:
 |---------------------------------|---------------------------------
 |---------------------------------|---------------------------------
 |---------------------------------|---------------------------------
 |---------------------------------|---------------------------------
 |---------------------------------|-6-~~----------------------------
 |-12h---12h---0-----0-0-0-0-0-1-0-|-----------0-3-0-3-0-3-0-3-0-3-0-

Outro - Repeat this 5 times:
 |-----------------------------------------------------
 |-----------------------------------------------------
 |-5-----------------------------/8--------------------
 |-5---------0---------1---------/8--------------------
 |-3---------0---------1---------/6--------------------
 |-----------0---------1-------------------------------

 |--------------------------------------------------------
 |--------------------------------------------------------
 |-7-----------5~~--4~~--5---6---7------------------------
 |-7---6-7-6---5~~--4~~--5---6---7------------------------
 |-5---------5-3~~--2~~--3---4---5------------------------
 |-0-----------------------------0------------------------

 |--------------------------------|
 |--------------------------------|
 |-7------------------------------|
 |-7------------------------------|
 |-5------------------------------|
 |-0------------------------------|

Build feedback....end


 ~ = vibrato      h = natural harmonic   b = bend      / = slide up

 \ = slide down   . =  palm mute         R = let note ring

"Let your amp build up feedback, and voila!
Into Infinity!!"
Title: Re: Melvins Tabs
Post by: kurtrip on March 19, 2006, 03:31:38 AM
Revolve by the Melvins
from the album "Stoner Witch"
tabbed by ME :P
for normal tuning
no solo thought :lol:
Riff 1
E ---------------------------------------------------------------------------|
B ---------------------------------------------------------------------------|
G --7-xx-7-xx--7/8-xx-7/8-xx-7/8-xx-7/8-xx--------------------|
D --7-xx-7-xx--7/8-xx-7/8-xx-7/8-xx-7/8-xx--------------------|
A --5-xx-5-xx--5/6-xx-5/6-xx-5/6-xx-5/6-xx--------------------|
E ---------------------------------------------------------------------------|

Alternative riff 1 (either you play the one above or this one)
E -----------------------------------------------------------|
B -3-xx-3-xx-3/4-xx-3/4-xx-3/4-xx-----------------|
G -2-xx-2-xx-2/3-xx-2/3-xx-2/3-xx----------------|
D -0-xx-0-xx-0/1-xx-0/1-xx-0/1-xx----------------|
A -----------------------------------------------------------|
E -----------------------------------------------------------|
Riff 2 (if u have played riff 1 alternative play first chord also the way in alternative riff 1) (played with Palm Mute)
E ------------------------------------------------------------|
B ------------------------------------------------------------|
G -77777777---------------------------------------------------7--------------------------------|
D -77777777-33333333-55555555-xxxxxxxx-553--7-----------------------------------------------------|
A -55555555-33333333-55555555-xxxxxxxx-553--5-----------------------------------------------|
E ----------------11111111-33333333-xxxxxxxx-331----------------------------------------|
Riff 3 a
E -------------------------------------------------------------------------------------|
B -------------------------------------------------------------------------------------|
G --55555555--------------------8\7-xx-8\7-xxxx-8\7-xx-8\7-xxxx--------|
D --55555555-33333333-----8\7-xx-8\7-xxxx-8\7-xx-8\7-xxxx-----|
A --33333333-33333333-----6\5-xx-6\5-xxxx-6\5-xx-6\5-xxxx-----|
E -----------------11111111------------------------------------------------------|
Riff 3 b
E -------------------------------------------------------------------------------------|
B -------------------------------------------------------------------------------------|
G --55555555---------------------------------------------------------------------|
D --55555555-33333333--------------------------------------------------------|
A --33333333-33333333-----33-----------------6p3-5~---------------------------------|
E -----------------11111111--44---33-22-11-0----------------------------------------------|
Title: Re: Melvins Tabs
Post by: Green Honey on March 19, 2006, 09:23:32 AM
thanks but there's a complete tab of this aready out there. just redid some of it:

Melvins - Revolve
 
Tuning DADGBE
 
INTRO
   1
Title: Re: Melvins Tabs
Post by: Rex Irae on March 19, 2006, 09:22:35 PM
 When I tabbed revolve (althought I've forgotten it  :() my intro was more like this:

e|---------------------------------------------------------------
b|---------------------------------------------------------------
g|---------------------------------------------------------------
d|-6h7---7-7--x-x--5h6--x-x--5h6---x-x--5h6-----------
a|-5------5-5--x-x--5-----x-x--5------x-x--5--------------
e|---------------------------------------------------------------


That's not quite what it is I'm sure since I just kinda played around with what I thought sounded ok since I don't have it written down but that is at least similar.. you could also play it on the d and g strings by the first two frets.
Title: Re: Melvins Tabs
Post by: kurtrip on March 20, 2006, 08:12:34 AM
I asked my guitarteacher how riff 1 is played and he said it was played like alternative riff 1 in my tab (he said that u can hear it, so..)
(Althoug i find it easier to do it with the 577 powerchord :lol:)
Title: Re: Melvins Tabs
Post by: Green Honey on March 20, 2006, 09:29:56 AM
I asked my guitarteacher how riff 1 is played and he said it was played like alternative riff 1 in my tab (he said that u can hear it, so..)

so...?
Title: Re: Melvins Tabs
Post by: kurtrip on March 21, 2006, 06:55:07 AM
so.. that alternative riff 1 will probaly be the right version ;) :P
Title: Re: Melvins Tabs
Post by: Green Honey on March 21, 2006, 07:11:40 AM
only if your guitar teacher's right, and if buzz played it differently to that
when i watched his hands on the fretboard. anyway why not try things
yourself and find out rather than just believing what people tell you? :idea:
i keep hearing it differently myself.

now i'm sure this is right this time, i swear:
Title: Re: Melvins Tabs
Post by: Green Honey on March 27, 2006, 02:42:29 PM
CORRECTION
Your Blessened


intro
   1     2     3     4     1     2     3     4    
e|-------------------------------------------------
b|-------------------------------------------------
g|-------------------------------------------------
d|-------------------------------------------------
a|-5-----------0-----5-----------------5-----5--5--
d|-5-----------0-----5-----------------5-----5--5--
               .        
e|-------------------------------------------------
b|-------------------------------------------------
g|-------7-----------5-----------------------------
d|-5--6--7-----------5-----------------------------
a|-5--6--------5-----3-----------------------------
d|-------------5-----------------------------------

e|-------------------------------------------------
b|-------------------------------------------------
g|-------------------------------------------------
d|-------------------------------------------------
a|-5-----------0-----5-----------------5-----5--5--
d|-5-----------0-----5-----------------5-----5--5--
               .  
e|-------------------------------------------------
b|-------------------------5--7--5--7--5--7^-------
g|-------7-----------5-----5--7--5--7--5--7^-------
d|-5--6--7-----------5-----------------------------
a|-5--6--------5-----3-----------------------------
d|-------------5-----------------------------------

e|-------------------------------------------------
b|-------------------------------------------------
g|-------------------------------------------------
d|-------------------------------------------------
a|-5-----------0-----5-----------------5-----5--5--
d|-5-----------0-----5-----------------5-----5--5--
               .
e|-------------------------
b|-------------------------
g|-------7-----------5-----
d|-5--6--7-----------5-----
a|-5--6--------5-----3-----
d|-------------5-----------

VERSE riff - play 3x

   1     2     3     4     1     2     3     4      
e|-------------------------------------------------
b|-------------------------------------------------
g|-------------------7^----------------------------
d|-------------------7^----------------------------
a|-0-----0-----0-----5^----------0-----0-----0-----
d|-0-----0-----0-----------------0-----0-----0-----
   .     .     .                 .     .     .  
e|--------------------------------------------------------
b|----7~--------------------------------------------------
g|-7--7~-------------------7b----r-----------------7^-----
d|-7-----------------------7b----r-----------------7^-----
a|-5-----------0--0--0--0--5b----r-----0--0--0--0--5^-----
d|-------------0--0--0--0--------------0--0--0--0---------
               .  .  .  .              .  .  .  .    

 Then play this 2x:
   1     2     3     4     1     2     3     4     1     2     3    
e|--------------------------------------------------------------------
b|--------------------------------------------------------------------
g|-------------------7------------------------------------------------
d|-------------------7------------------------------------------------
a|-0-----0-----0-----5------------------------------------------------
d|-0-----0-----0------------------------------------------------------
   .     .     .                      
e|-------------------------------------------------
b|-------------------------------------------------
g|-6-----------------7-----------------------------
d|-6-----------------7-----------------------------
a|-4-----------------5-----------------0-----0-----
d|-------------------------------------0-----0-----
                                       .     .

now play VERSE riff once.
  

bridge (palm-mute all)
e|-----------------------------------------------
b|-----------------------------------------------
g|-----------------------------------------------
d|-----------------------------------------------
a|-9--9--10--10--9--9--7--7--11--11--10--10------
d|-9--9--10--10--9--9--7--7--11--11--10--10------

e|---------------------------------------------------------------------------------
b|---------------------------------------------------------------------------------
g|---------------------------------------------------------------------------------
d|---------------------------------------------------------------------------------
a|-9--9--10--10--9--9--7--7--12--12--11--11--7--7--10--10--9--9--5--5--8--8--3--3--
d|-9--9--10--10--9--9--7--7--12--12--11--11--7--7--10--10--9--9--5--5--8--8--3--3--

pre-solo (play 3x)
   1     2     3     4     1     2     3     4     1     2        
e|-------------------------------------------------------------
b|-------------------------------------------------------------
g|-5-----7-----5-----7^----------5-----7-----5-----7^----------
d|-5-----7-----5-----7^----------5-----7-----5-----7^----------
a|-3-----5-----3-----5^----------3-----5-----3-----5^----------
d|-------------------------------------------------------------

e|-------------------------------------------
b|-------------------------------------------
g|-------------------------------------------
d|-------------5^----------------------5^----
a|-3h-5--5--5--------5-----3h-5--5--5--------
d|-------------------------------------------

   1     2     3     4     1     2     3     4     1     2     3     4    
e|-------------------------------------------------------------------------
b|-------------6--------6^-------------------------------------------------
g|-------5h-7--6--7--7--6^---ring------------------------------------------
d|-------5h-7-----7--7-----------------------------------------------
a|-3h-5----------------------------------------------------------------------
d|-------------------------------------------------------------------------

then
   1     2     3     4     1     2     3     4     1     2     3     4    
e|-------------------------------------------------------------------------
b|-------------------6^----------------------6-----6-----------------6^----
g|-5-----7-----5-----6^----------7--7--7--7--6-----6-----7--7--7--7--6^----
d|-5-----7-----5-----------------7--7--7--7--------------7--7--7--7--------
a|-------------------------------------------------------------------------
d|-------------------------------------------------------------------------

e|-------------------------------------------------------------------------
b|-------------------6^----------------------------6^----------------------
g|-5-----7-----5-----6^----------5-----7-----5-----6^----------7--7--7--7--
d|-5-----7-----5-----------------5-----7-----5-----------------7--7--7--7--
a|-------------------------------------------------------------------------
d|-------------------------------------------------------------------------

e|-------------------------------
b|-6-----6-----------------6^----
g|-6-----6-----7--7--7--7--6^----
d|-------------7--7--7--7--------
a|-------------------------------
d|-------------------------------

e|-------------------------------------------------------------------------
b|-(6^)--------------------------------------------------------------------
g|-(6^)----let-------------------------------------------------------------
d|---------ring------------------------------------------------------------
a|-------------------------------------------------------------------------
d|-------------------------------------------------------------------------

e|-------------------------------------
b|-------------------------------------
g|-------------------------------------
d|-------------------------------------
a|-ring--------------------------------
d|-------------------------------------

solo
   1     2     3     4     1     2     3     4     1     2     3     4              
e|-------------------------------------------------------------------------
b|-14h17p14h17p14h17p14h17p14h17p14h17p14h17p12~~~~~~~~~~~~~~~~~~~~~~~~~~~~
g|-------------------------------------------------------------------------
d|-------------------------------------------------------------------------
a|-------------------------------------------------------------------------
d|-------------------------------------------------------------------------

e|-------------------------------------------------------------------------
b|(11)~~~~~~~~~~~~~~~~~~~~~~~~~~~~~~~~~~~~~~~~~~~~-------------------------
g|-------------------------------------------------------------------------
d|------------------------------------------------(0)----ring + feedback---
a|-------------------------------------------------5-------until 5:20------
d|-------------------------------------------------------------------------

then
   1     2     3     4     1     2     3     4    
e|--------------------------------------------------
b|--------------------------------------------------
g|-5-----------------5-----------5--5--5-----4------
d|-5-----------------5-----------5--5--5-----4------
a|-3-----------------3-----------3--3--3-----2------
d|--------------------------------------------------

e|--------------------------------------------------
b|--------------------------------------------------
g|-5-----------------5-----------4--4--5--5--8------
d|-5-----------------5-----------4--4--5--5--8------
a|-3-----------0--0--3-----------2--2--3--3--6------
d|-------------0--0---------------------------------
               .  .  
 
e|--------------------------------------------------
b|--------------------------------------------------
g|-7-----------------7-----------7--7--7--7--5------
d|-7-----------------7-----------7--7--7--7--5------
a|-5-----------0--0--5-----------5--5--5--5--3------
d|-------------0--0---------------------------------
               .  .
                                             "Your
e|-------------------------------------------------
b|-------------------------------------------------
g|-7-----------------7-----------7-----7-----------
d|-7-----------------7-----------7-----7-----------
a|-5-----------0--0--5-----------5-----5-----------
d|-------------0--0--------------------------------
               .  .
   blessened..."
e|-------------------------------------------------
b|-------------------------------------------------
g|-7-----------------7-----------7--7--7-----7--7--
d|-7-----------------7-----------7--7--7-----7--7--
a|-5-----------5--5--5-----------5--5--5-----5--5--
d|-------------0--0--------------------------------

e|-------------------------------------------------
b|-------------------------------------------------
g|-7\-5--5--5--5--5--5----------5------5-----5-----
d|-7\-5--5--5--5--5--5----------5------5-----5-----
a|-5\-3--3--3--3--3--3----------3------3-----3-----
d|-------0--0--0--0--0-----------------------------
         .  .  .  .  
e|-------------------------------------------------
b|-------------------------------------------------
g|-4-----------------4-----------4--4--4-----4--4--
d|-4-----------------4-----------4--4--4-----4--4--
a|-2-----------0--0--2-----------2--2--2-----2--2--
d|-------------0--0--------------------------------
               .  .  
e|------------------------------------------
b|------------------------------------------
g|-4/5--5--5--5--5--------------------------
d|-4/5--5--5--5--5--------------------------
a|-2/3--3--3--3--3--3-----------0-----3-----
d|------------------3-----------0-----3-----
                                .
outro - play 2x  
e|-------------------------------------------------
b|-------------------------------------------------
g|-------------------7^----------------------------
d|-------------------7^----------------------------
a|-0-----0-----0-----5^----------0-----0-----0-----
d|-0-----0-----0-----------------0-----0-----0-----
   .     .     .                 .     .     .
e|------------------------------------------------------
b|------------------------------------------------------
g|-7^----------------------7b---r-----------------7^----
d|-7^----------------------7b---r-----------------7^----
a|-5^----------0--0--0--0--5b---r-----0--0--0--0--5^----
d|-------------0--0--0--0-------------0--0--0--0--------
               .  .  .  .             .  .  .  .      

end on this
e|-------------------
b|-------------------
g|-------------------
d|-------------------
a|-0-----0-----0-----
d|-0-----0-----0-----
   .     .     .  
[/size]
Title: Re: Melvins Tabs
Post by: Green Honey on March 28, 2006, 06:41:56 AM
"The Fool, The Meddling Idiot"

updated 05 June 2006

AADGBE tuning

INTRO - play 8X approx:
   1   2   3   4   1   2   3   4     1   2   3   4   1   2   3
E|---------------------------------|-----------------------------
B|---------------------------------|-----------------------------
G|---------------------------------|-----------------------------
D|---------------------------------|-2---2---2-2---2-2---2-2-2-2-
A|-12--10--12--10--12--0-0-0-0-10--|-0---0---0-0---0-0---0-0-0-0-
A|-0---0---0---0---0---0-0-0-0-0---|-0---0---0-0---0-0---0-0-0-0-

   1   2   3   4   1   2   3   4     1   2   3   4   1   2   3   4
E|---------------------------------|---------------------------------
B|---------------------------------|---------------------------------
G|---------------------------------|---------------------------------
D|-----------------------------2---|-2---2---2---2-2---2-2---2-2-2-2-
A|-9---10--0-0-9---0-0-0-0-7---0---|-0---0---0---0-0---0-0---0-0-0-0-
A|-0---0---0-0-0---0-0-0-0-0---0---|-0---0---0---0-0---0-0---0-0-0-0-


VERSE - play 8X  [PALM-MUTE ALL]:

  "I can feed/From the angel..."
   1   2   3   4   1   2   3   4     1   2   3   4   1   2   3   4
E|---------------------------------|---------------------------------
B|---------------------------------|---------------------------------
G|---------------------------------|---------------------------------
D|---------------------------------|-2---2---2---2-2---2-2---2-2-2-2-
A|-12--10--12--10--12--0-0-0-0-10--|-0---0---0---0-0---0-0---0-0-0-0-
A|-0---0---0---0---0---0-0-0-0-0---|-0---0---0---0-0---0-0---0-0-0-0-

   1   2   3   4   1   2   3   4     1   2   3   4   1   2   3   4
E|---------------------------------|---------------------------------
B|---------------------------------|---------------------------------
G|---------------------------------|---------------------------------
D|-----------------------------2---|-2---2---2---2-2---2-2---2-2-2-2-
A|-9---10--0-0-9---0-0-0-0-7---0---|-0---0---0---0-0---0-0---0-0-0-0-
A|-0---0---0-0-0---0-0-0-0-0---0---|-0---0---0---0-0---0-0---0-0-0-0-
   

STRAIGHT AFTER THAT THERE'S A PAUSE FOR 2 BARS, DURING THIS BIT:
"Away from the mangle rare we don't need
I got the one to make me alright."

THEN YOU DO THIS 8X:
E|-----------------
B|-----------------
G|-2^------2^------
D|-2^------2^------
A|-0---0-0-0---0-0-
A|-0---0-0-0---0-0-
       . .     . .

Play an unmuted VERSE 4X


THERE'S A PAUSE FOR 1 BAR DURING THIS:
"They are alive and wasted on me."

THEN PLAY THIS SEQUENCE 2X:
           "You are so in there..."
E|---------------------------------
B|---------------------------------
G|---------------------------------
D|-5-5-5-5-5---5-5---5---5---5-5-5-
A|-3-3-3-3-3---3-3---3---3---3-3-3-
A|---------------------------------
   . . . . .   . .   .   .   . . .

        "...But will you leave me?"
E|---------------------------------
B|---------------------------------
G|---------------------------------
D|---3-3-3-3---3-3---3---3---3-3-3-
A|-0h1-1-1-1---1-1---1---1---1-1-1-
A|---------------------------------
       . . .   . .   .   .   . . .

E|---------------------------------
B|---------------------------------
G|---------------------------------
D|-2-2-2-2-8---2-2-3---2-2-4---5---
A|-0-0-0-0-6---0-0-1---0-0-2---3---
A|---------------------------------
   . . . .     . .     . .

E|-------------------------
B|-------------------------
G|-------------------------
D|-2-2-2-2-8---2-2-3---4---
A|-0-0-0-0-6---0-0-1---2---
A|-------------------------
   . . . .     . .

OUTRO - PLAY THIS 3X:
   1     2     3     4     1     2     3     4  
E|-------------------------------------------------
B|-------------------------------------------------
G|-------------------------------------------------
D|-2--2--2--2--2-----2--2--2--2--------------------
A|-0--0--0--0--0-----0--0--0--0--10^------10^------
A|-0--0--0--0--0-----0--0--0--0--------------------
   .  .  .  .  .     .  .  .  .
 
E|-------------------------------------------------
B|-------------------------------------------------
G|-------------------------------------------------
D|-------------------------------------------------
A|-10-10-10-10-10------10-10-10-10-12^------12^----
A|-0--0--0--0--0---0-0-0--0--0--0------------------
                   . .
Title: Re: Melvins Tabs
Post by: Vcavallo on April 02, 2006, 08:42:20 AM
alright, that's very nice.  keep it up and you'll be gone, it's really that easy
Title: Re: Melvins Tabs
Post by: TGH on April 03, 2006, 01:47:48 PM
This is TOTAL bullshit. Fuck this guy. Asshole. This guy can suck my fucking dick until the sky cracks open, this piece of shit should pray unto his god to have the right to suck the living assholes of the dudes.
Fuckin guy wants to tell ME
Title: Re: Melvins Tabs
Post by: klump on April 03, 2006, 02:55:17 PM
This is TOTAL bullshit. Fuck this guy. Asshole. This guy can suck my fucking dick until the sky cracks open, this piece of shit should pray unto his god to have the right to suck the living assholes of the dudes.
Fuckin guy wants to tell ME
Title: Re: Melvins Tabs
Post by: TGH on April 03, 2006, 06:05:45 PM
Nah man, I think he's raging. Raging the government TAB MACHINE, man! We just don't get it! By telling people how to play the song right, we're just fallin' in LINE, MAN!
Title: Re: Melvins Tabs
Post by: Vcavallo on April 03, 2006, 08:21:05 PM
hahaha
Title: Re: Melvins Tabs
Post by: lazybones on April 10, 2006, 02:24:28 PM
after much discussion nobody plays the intro to Revolve like I do... hmm...  Here's what I hear:


E -------------------------------------------------
B -------------------------------------------------
G --5h7--x-x--7--7p5---------------------------
D --5h7--x-x--7--7p5----7h8--x-x--7h8---------
A --5----x-x--5--5------5----x-x--5-----------
D -------------------------------------------------


anyone?
Title: Re: Melvins Tabs
Post by: anaconda on April 10, 2006, 02:40:06 PM
what you're doing on 'A' looks kosher
Title: Re: Melvins Tabs
Post by: Green Honey on April 10, 2006, 04:13:58 PM
yeah thats more like it
Title: Re: Melvins Tabs
Post by: klump on April 10, 2006, 06:02:52 PM
Ive been wrong about night goat...
Title: Re: Melvins Tabs
Post by: CaptainPungent on May 04, 2006, 12:00:16 PM
was mcbakkos banned?

someone should tab the new version of pearl bomb on drums..
Title: Re: Melvins Tabs
Post by: Green Honey on May 04, 2006, 04:27:57 PM
was mcbakkos banned?

someone should tab the new version of pearl bomb on drums..
i'll try but i don't have any drums
Title: Re: Melvins Tabs
Post by: skizm_bts on May 17, 2006, 08:16:16 AM
could anyone please put up the bass tab to "judy"?
Title: Re: Melvins Tabs
Post by: Green Honey on May 17, 2006, 11:47:45 AM
Title: Re: Melvins Tabs
Post by: Green Honey on May 17, 2006, 12:13:53 PM
someone should tab the new version of pearl bomb on drums..
tabbing this would be a waste of time, it's not even that complex. just listen to it again and again until you know what he's hitting and when. it'll help if you slow it down as well.
Title: Re: Melvins Tabs
Post by: CaptainPungent on May 17, 2006, 04:28:53 PM
someone should tab the new version of pearl bomb on drums..
tabbing this would be a waste of time, it's not even that complex. just listen to it again and again until you know what he's hitting and when. it'll help if you slow it down as well.
i know.
his floor tom and bass drum sound so identical though...
Title: Re: Melvins Tabs
Post by: skizm_bts on May 17, 2006, 05:48:59 PM
thankyou  :P
Title: Re: Melvins Tabs
Post by: Leigh on May 21, 2006, 12:54:07 AM
I'm pretty sure The Fool, The Meddling Idiot is tuned down to a dropped A. Just like Boris, Koollegged and possibly others.
Title: Re: Melvins Tabs
Post by: Green Honey on May 21, 2006, 09:29:51 AM
I'm pretty sure The Fool, The Meddling Idiot is tuned down to a dropped A. Just like Boris, Koollegged and possibly others.
hmm i'll check this lateer
Title: Re: Melvins Tabs
Post by: Andy on May 21, 2006, 10:13:49 AM
I'm pretty sure The Fool, The Meddling Idiot is tuned down to a dropped A. Just like Boris, Koollegged and possibly others.

Das ist correct. One Tool song and some songs and Fugazi: Red Medicine. I love a bit of drop A.
Title: Re: Melvins Tabs
Post by: Green Honey on June 05, 2006, 04:05:14 AM
I'm pretty sure The Fool, The Meddling Idiot is tuned down to a dropped A. Just like Boris, Koollegged and possibly others.

Das ist correct. One Tool song and some songs and Fugazi: Red Medicine. I love a bit of drop A.
changed it now.
Title: Re: Melvins Tabs
Post by: klump on June 05, 2006, 06:40:16 AM
are these songs played in drop A live too?
Title: Re: Melvins Tabs
Post by: Green Honey on June 05, 2006, 06:46:26 AM
yessiree
Title: Re: Melvins Tabs
Post by: klump on June 05, 2006, 09:17:54 AM
hmmm...does that mean that most of the songs are played lower than drop d?
cause it must be a bitch to tune up from drop A to drop D while playing a set, cause they always have sets who just gels so good.
its like a well oiled machine.
Title: Re: Melvins Tabs
Post by: Green Honey on June 06, 2006, 05:29:40 AM
hmmm...does that mean that most of the songs are played lower than drop d?
cause it must be a bitch to tune up from drop A to drop D while playing a set, cause they always have sets who just gels so good.
its like a well oiled machine.
thats what drum solos are for :)
Title: Re: Melvins Tabs
Post by: CaptainPungent on June 06, 2006, 11:26:00 AM
green, do you have drum tabs for the second half of 'let it all be'?

i'm mainly concerned with what he hits, if you can put up a list of what the effects are, it'd be much appreciated.
Title: Re: Melvins Tabs
Post by: Green Honey on June 06, 2006, 01:27:32 PM
green, do you have drum tabs for the second half of 'let it all be'?

i'm mainly concerned with what he hits, if you can put up a list of what the effects are, it'd be much appreciated.

how does this sound? i don't have dale's drumset, or any drumset for that matter so i can't
try it out but it's the best i can do for now. not really sure about what he's hitting to be honest.

LET IT ALL BE (album version, second part)

 RC: Rhythm Crasher
 CB: Cowbell
 SB: Snare Brush   
 FC: Finger Cymbal   
 TB: Tambourine 
 Bd: Bass Drum


      1 + 2 + 3 + 4 +  1 + 2 + 3 + 4 +  1 + 2 + 3 + 4 +  1 + 2 + 3 + 4 +
   RC|----------------|----------------|----------------|--------o-o-----|
   CB|----------------|----------------|----------------|--------------o-|
   SB|----------------|----------------|----------o-----|-o----o---------|
   FC|----------------|o---------------|----------------|----------------|
   TB|----------------|----------------|o-o-o-o-o---o---|o-o-------------|
   Bd|o-o-o-o-o-------|----------o-----|----------------|------------o---|
   Note:                         ^ occasionally there's reverb on this bass drum hit.
Title: Re: Melvins Tabs
Post by: klump on June 06, 2006, 03:10:05 PM
Ive seen them use different octave pedals (not the blue box, other ones) maybe they just tune d-drop (or c- drop) and just use those pedals for a "lower" effect?
Title: Re: Melvins Tabs
Post by: Green Honey on June 08, 2006, 03:57:02 AM
Ive seen them use different octave pedals (not the blue box, other ones) maybe they just tune d-drop (or c- drop) and just use those pedals for a "lower" effect?
but it only usually take about 5 seconds tops to tune the low e string from A to D and vice versa..
Title: Re: Melvins Tabs
Post by: klump on June 08, 2006, 06:38:34 AM
Ive seen them use different octave pedals (not the blue box, other ones) maybe they just tune d-drop (or c- drop) and just use those pedals for a "lower" effect?
but it only usually take about 5 seconds tops to tune the low e string from A to D and vice versa..

yeah, but you have to tune down all the other strings too.
I havent seen them use that much time on tuning.
at least live.
Title: Re: Melvins Tabs
Post by: Green Honey on June 08, 2006, 06:50:41 AM
yeah, but you have to tune down all the other strings too.
I havent seen them use that much time on tuning.
at least live.
nah it's just drop A on the E string without tuning the other strings for Boris, The Fool and Kool Legged.
Title: Re: Melvins Tabs
Post by: klump on June 08, 2006, 08:27:25 AM
yeah, but you have to tune down all the other strings too.
I havent seen them use that much time on tuning.
at least live.
nah it's just drop A on the E string without tuning the other strings for Boris, The Fool and Kool Legged.

okay, I dont know much about tuning...

I play C# drop myself (I was told this actually, cause it wasnt until recent that I got a tuning box :lol:)
and when I do that I tune all the strings down , first the string to D# then the rest like when you tune in standard.
then I tune the E string to C#.

thats why I assumed they tuned that way when they drop to A.
Title: Re: Melvins Tabs
Post by: jaymz on June 10, 2006, 09:52:18 AM
Does anyone have any big business tabs? I'm having a go like and i cant get it properly so anyway got any at all?
To see how buzz tunes down to drop A or any tuning just watch soatd when it gets to boris or just any show.
Title: Re: Melvins Tabs
Post by: norecess on June 10, 2006, 10:09:24 AM
To see how buzz tunes down to drop A or any tuning just watch soatd when it gets to boris or just any show.

Yep. I don't know anything about tuning but I did notice that.
Title: Re: Melvins Tabs
Post by: Green Honey on June 13, 2006, 05:02:24 AM
Euthanasia (courtesy of "speaker fuzz" - thanks!)
Quote from: speaker fuzz

just listen to the song for the rhythm and the palm muting this is mostly a guide havent put the exact amount of times you hit a chord listen to the song.

intro
d--2~-|--2~-|
a--2~-|--2~-|
d--2~-|--2~-|

verse
D--2-2-2-3-2-3-2-3-2-3-3h4--4-4-4~--4-4-4-3-x-(0)-3-x-(0)3-x-(0)3-3p2--2-2-2~
A--2-2-2-3-2-3-2-3-2-3-3h4--4-4-4~--4-4-4-3-x-(0)-3-x-(0)3-x-(0)3-3p2--2-2-2~
D--2-2-2-3-2-3-2-3-2-3-3h4--4-4-4~--4-4-4-3-x-(0)-3-x-(0)3-x-(0)3-3p2--2-2-2~

chorus

D--4-4-4-4-4~-4-4-4-4-4-4-4-4-4-4h5-5-5-5~-5-5-5\8-8-8-8---3-3-3-3h4
A--4-4-4-4-4~-4-4-4-4-4-4-4-4-4-4h5-5-5-5~-5-5-5\8-8-8-8---3-3-3-3h4
D--4-4-4-4-4~-4-4-4-4-4-4-4-4-4-4h5-5-5-5~-5-5-5\8-8-8-8---3-3-3-3h4
end on
D--4-4-4~-4-4-4-4-4-4-4-4-4-4h5-5-5-5~-5-5-5-2~
A--4-4-4~-4-4-4-4-4-4-4-4-4-4h5-5-5-5~-5-5-5-2~
D--4-4-4~-4-4-4-4-4-4-4-4-4-4h5-5-5-5~-5-5-5-2~


outro riff

D-2---2-3-2-3-2-3-333p2-2-2-2~
A-2---2-3-2-3-2-3-333p2-2-2-2~
D-2---2-3-2-3-2-3-333p2-2-2-2~

D-2-3-0-6-0-5-0-33P2
A-2-3-0-6-0-5-0-33P2
D-2-3-0-6-0-5-0-33P2

just bend the hell out of this note on the g string, at the end you play the g string then d string note, theres also a harmonic on the high e string, around the twleve fret
solo
D-----|-----
A-----|--^-
D--^-|--9
G--9--|----
B------|---
e------|----

GOES SOMETHING LIKE THAT ADD CORRECTIONS IF IT NEEDS ANY
Title: Re: Melvins Tabs
Post by: Green Honey on June 13, 2006, 11:21:15 AM
updated this today.

Hag Me
Drop-D tuning


intro
E ------------------------------------------------
B ------------------------------------------------
G ------------------------------------------------
d -0--------------------------(0)-----------------
a -0--------------------------(0)-----------------
D -0--------------------------(0)-----etc---------

verse - play 3x (6x first time)
Title: Re: Melvins Tabs
Post by: Hog log on June 14, 2006, 11:32:09 AM
well put
Title: Re: Melvins Tabs
Post by: Metalhead Cow on June 18, 2006, 07:26:44 PM
Hag Me looks great. I couldn't figure out that small part near the ending, thanks.
Title: Re: Melvins Tabs
Post by: Green Honey on June 19, 2006, 10:00:46 AM
Hag Me looks great. I couldn't figure out that small part near the ending, thanks.
thank you. must say though that i'm not absolutly sure about a few notes in that part.
Title: Re: Melvins Tabs
Post by: andy the angry bald man on June 28, 2006, 07:08:09 PM
this is fucking awesome.  when i get time, i'll try to tab some stuff.  uh...  any requests?
Title: Re: Melvins Tabs
Post by: Green Honey on July 19, 2006, 03:03:19 PM
this is fucking awesome. when i get time, i'll try to tab some stuff. uh... any requests?
Halo of Flies ;)
Title: Re: Melvins Tabs
Post by: plain_and_boring on July 29, 2006, 10:55:26 AM
Id be curious to see somebody interpretation of "Gluey Porch Treatments"
My band covers that song, but Im pretty sure Im not playign it right, hahaha
Title: Re: Melvins Tabs
Post by: duster on August 04, 2006, 10:21:27 PM
someone tab out that bass fill in buck owens
Title: Re: Melvins Tabs
Post by: Dr Geek on August 15, 2006, 05:43:29 PM
How about a tab for Little Judas Chongo?
Title: Re: Melvins Tabs
Post by: klump on August 20, 2006, 04:55:57 PM
(http://melvins.sunishun.com/images/KevinSetList_012503.jpg)

this is kevins setlist from an old gig , and you can see some tunings notes beside some of the songs.
can someone fill me in on those?

Title: Re: Melvins Tabs
Post by: grungehead on August 20, 2006, 07:50:04 PM
this right here is a great place for melvins tabs

http://www.ultimate-guitar.com/tabs/melvins_tabs.htm
Title: Re: Melvins Tabs
Post by: Vcavallo on August 20, 2006, 09:45:31 PM
this is kevins setlist from an old gig , and you can see some tunings notes beside some of the songs.
can someone fill me in on those?


oh kevin........seeing this makes me miss him.  it's like when you find an old condom stuck to your wall and remember a lover past.
 :shock: :o
Title: Re: Melvins Tabs
Post by: anaconda on August 27, 2006, 01:22:51 PM
Does that 'DD' mean a dropped D or a diminished D??
Title: Re: Melvins Tabs
Post by: Vcavallo on August 27, 2006, 01:31:46 PM
if you're still taking requests, can you tab bass parts?  any song, any album.  i am trying to improve my abiliTIES and would like to play accurately along with something very good and rhythmic, like melvins songs.

thanks!
Title: Re: Melvins Tabs
Post by: Lunica on September 01, 2006, 06:52:01 PM
maybe we should have a thread with tabs to songs by other artists as well?
Title: Re: Melvins Tabs
Post by: Metalhead Cow on September 03, 2006, 12:46:43 PM
Okay, here's my intrepretation of the first riff in Civilized Worm. It's my first ever attempt at tabbing something on the internet, so bear with me.

tuning= standard










Title: Re: Melvins Tabs
Post by: Metalhead Cow on September 03, 2006, 12:50:02 PM
Damn, it looked fine when I was typing it but it came out all fucked up. It's not in sync with the timing I put in. The notes are all there though; just use it as a guide.
Title: Re: Melvins Tabs
Post by: Green Honey on September 16, 2006, 11:16:10 AM
if you're still taking requests, can you tab bass parts? any song, any album. i am trying to improve my abiliTIES and would like to play accurately along with something very good and rhythmic, like melvins songs.

thanks!
there's quite a few bass tabs in this thread but let me know if there's something else you want other than the ones already here.
Title: Re: Melvins Tabs
Post by: tycho5 on September 16, 2006, 11:50:06 AM
Back in the day (95 - 96), I ran the first Melvins site on the web. Just something to teach myself some HTML, meet people, and praise the Melvins. Part of it was a tab section. A lot of people contributed. I still have the tabs plus the tab page. I've zipped them up but can't seem to get them attached here for you. Anyone I can send the zip file to for posting?

Enjoy!
Title: Re: Melvins Tabs
Post by: Vcavallo on September 16, 2006, 02:44:26 PM
i've got somewhere i can put it and link to here.
send it to me
Title: Re: Melvins Tabs
Post by: Vcavallo on September 16, 2006, 04:36:35 PM
matt is fast! 

here's the link, tabaholics:

http://www.runningonion.com/melvins_tab.zip

^ Direct Download
Title: Re: Melvins Tabs
Post by: Vcavallo on September 16, 2006, 04:38:59 PM
uh, wait.  it doesn't really work (or i don't know how to access the files). 

AH, forget it.  it's fine.  just open the ".tab" files in a text program.  (textedit, wordpad, etc.)
Title: Re: Melvins Tabs
Post by: mopafeena on September 25, 2006, 04:39:59 AM
Anyone know the bass line for the end part of Black Bock? Please. I can't seem to get it right. Not the noise bit at the very end, the bit before that.

Thanks in advance to anyone with an idea.
Title: Re: Melvins Tabs
Post by: boog on September 29, 2006, 12:13:00 PM
anyone have any idea about little judas chongo?

Title: Re: Melvins Tabs
Post by: boog on September 29, 2006, 03:51:44 PM
I tried tabing out Little Judas Chongo, probably not very well but we'll see. It is probably very wrong. Any corrections welcome. Put it in with the others if it checks out.

Little Judas Chongo
Drop D Tuning

Intro
 
D---12-12-12-12-12-12-12-12------12-12-12-12----12-12-12-12-----12-12---------
A---11-11-11-11-11-11-11-11------11-11-11-11----11-11-11-11-----11-11---------
D---12-12-12-12-12-12-12-12------12-12-12-12----12-12-12-12-----12-12---------

Solo

E-----------------------------------------------------------------------------------------------------------
B--------------------10-9---------------------------------------------------------------------------------
G---9--7-6-7-6----------8--8-8-8---------------8-8-8-8-8-8-8-8-8-----8------------5---------
D-------------------------------8-8-8---------------8-8-8-8-8-8-8-8-8--------7-5-7-------5-----
A-----------------------------------------7-6-5-----------------------------------------------------------
D------------------------------------------------------------------------------------------------------------

Ending Unison w/ Bass

D--0-0-0-0-0-0-0-0-0-0-1-0-0-3-0-0-0-0-0-0-0-0-3-1-0-0-0-0-0-0-0-0-1-0-0-0-0-1-0-0-0-0-1-0-0-1-0-1---
A--0-0-0-0-0-0-0-0-0-0-1-0-0-3-0-0-0-0-0-0-0-0-3-1-0-0-0-0-0-0-0-0-1-0-0-0-0-1-0-0-0-0-1-0-0-1-0-1---
D--0-0-0-0-0-0-0-0-0-0-1-0-0-3-0-0-0-0-0-0-0-0-3-1-0-0-0-0-0-0-0-0-1-0-0-0-0-1-0-0-0-0-1-0-0-1-0-1---

I couldn't get any of the verse fills as there was just too much fuzz and effects on them.
Title: Re: Melvins Tabs
Post by: Metalhead Cow on September 29, 2006, 07:43:06 PM
I tried tabing out Little Judas Chongo, probably not very well but we'll see. It is probably very wrong. Any corrections welcome. Put it in with the others if it checks out.

Little Judas Chongo
Drop D Tuning

Intro
 
D---12-12-12-12-12-12-12-12------12-12-12-12----12-12-12-12-----12-12---------
A---11-11-11-11-11-11-11-11------11-11-11-11----11-11-11-11-----11-11---------
D---12-12-12-12-12-12-12-12------12-12-12-12----12-12-12-12-----12-12---------

Solo

E-----------------------------------------------------------------------------------------------------------
B--------------------10-9---------------------------------------------------------------------------------
G---9--7-6-7-6----------8--8-8-8---------------8-8-8-8-8-8-8-8-8-----8------------5---------
D-------------------------------8-8-8---------------8-8-8-8-8-8-8-8-8--------7-5-7-------5-----
A-----------------------------------------7-6-5-----------------------------------------------------------
D------------------------------------------------------------------------------------------------------------

Ending Unison w/ Bass

D--0-0-0-0-0-0-0-0-0-0-1-0-0-3-0-0-0-0-0-0-0-0-3-1-0-0-0-0-0-0-0-0-1-0-0-0-0-1-0-0-0-0-1-0-0-1-0-1---
A--0-0-0-0-0-0-0-0-0-0-1-0-0-3-0-0-0-0-0-0-0-0-3-1-0-0-0-0-0-0-0-0-1-0-0-0-0-1-0-0-0-0-1-0-0-1-0-1---
D--0-0-0-0-0-0-0-0-0-0-1-0-0-3-0-0-0-0-0-0-0-0-3-1-0-0-0-0-0-0-0-0-1-0-0-0-0-1-0-0-0-0-1-0-0-1-0-1---

I couldn't get any of the verse fills as there was just too much fuzz and effects on them.

That last riff is right except near the end it goes from Ab5 to Eb5 once:
D--6----1
A--6----1
D--6----1
Title: Re: Melvins Tabs
Post by: mopafeena on September 30, 2006, 02:07:21 AM
Anyone know the bass line for the end part of Black Bock? Please. I can't seem to get it right. Not the noise bit at the very end, the bit before that.

Thanks in advance to anyone with an idea.

no one?  :(
Title: Re: Melvins Tabs
Post by: myriagon on October 22, 2006, 11:39:18 PM
any tabs for the new album? Especially history of bad men and the hawk.
Title: Re: Melvins Tabs
Post by: Mash on October 24, 2006, 04:21:55 AM
any tabs for the new album? Especially history of bad men and the hawk.

I'm putting together the bass tab to Blood Witch ... which you'll be able to follow for the guitar, I'm sure.

Oh, hi, btw ... I'm Mattress.
Title: Re: Melvins Tabs
Post by: Vcavallo on October 24, 2006, 08:30:10 AM
any tabs for the new album? Especially history of bad men and the hawk.

I'm putting together the bass tab to Blood Witch ... which you'll be able to follow for the guitar, I'm sure.

Oh, hi, btw ... I'm Mattress.

hey mattress!  i play bass, i'll enjoy this
Title: Re: Melvins Tabs
Post by: Metalhead Cow on October 24, 2006, 01:10:41 PM
I've already figured out Blood Witch, Civilized Worm, Rat Faced Granny, A History Of Bad Men, The Mechanical Bride, You've Never Been Right, the ending riff in The Talking Horse, and well... I've pretty got the jist of most of the songs. Mabye I'll post some tabs or email them to Brian later.
Title: Re: Melvins Tabs
Post by: myriagon on October 24, 2006, 01:53:38 PM
I've already figured out Blood Witch, Civilized Worm, Rat Faced Granny, A History Of Bad Men, The Mechanical Bride, You've Never Been Right, the ending riff in The Talking Horse, and well... I've pretty got the jist of most of the songs. Mabye I'll post some tabs or email them to Brian later.

I would love the tabs for history of bad men.
Title: Re: Melvins Tabs
Post by: Vcavallo on October 24, 2006, 02:12:33 PM
I've already figured out Blood Witch, Civilized Worm, Rat Faced Granny, A History Of Bad Men, The Mechanical Bride, You've Never Been Right, the ending riff in The Talking Horse, and well... I've pretty got the jist of most of the songs. Mabye I'll post some tabs or email them to Brian later.

I would love the tabs for history of bad men.

then look for tabs of "the man with the laughing hand is dead"....  :lol: :lol:
Title: Re: Melvins Tabs
Post by: Metalhead Cow on October 24, 2006, 02:34:30 PM
I've already figured out Blood Witch, Civilized Worm, Rat Faced Granny, A History Of Bad Men, The Mechanical Bride, You've Never Been Right, the ending riff in The Talking Horse, and well... I've pretty got the jist of most of the songs. Mabye I'll post some tabs or email them to Brian later.

I would love the tabs for history of bad men.

then look for tabs of "the man with the laughing hand is dead"....
Title: Re: Melvins Tabs
Post by: Metalhead Cow on October 24, 2006, 02:47:30 PM
Well, I screwed that up. That's not how it looked while I was typing it. What I had typed was accurate but this came out all weird. Apparently, I don't know how to do tabs correctly. I don't have time to try to fix it now. I have to get going. I'll try later. Sorry.
Title: Re: Melvins Tabs
Post by: Vcavallo on October 24, 2006, 03:14:54 PM
i tried to fix it but i don't know if it's really possible.  it's not as easy to format as .txt based stuff
Title: Re: Melvins Tabs
Post by: Green Honey on October 26, 2006, 06:53:21 AM
Well, I screwed that up. That's not how it looked while I was typing it. What I had typed was accurate but this came out all weird. Apparently, I don't know how to do tabs correctly. I don't have time to try to fix it now. I have to get going. I'll try later. Sorry.
when you post it just make sure it's in TELETYPE format:

A History Of Bad Men

Dropped D

    1   +   2   +   3   +   4   +

D---3-------0---------------6-------
A---3-------0---------------6-------
D---3-------0-----------0---6---0---

repeat this measure once more, then


 
    1   +   2   +   3   +   4   +

D---3---2---3---0-----------6-------
A---3---2---3---0-----------6-------
D---3---2---3---0-------0---6---0---

then

    1   +   2   +   3   +   4   +

D---3---5---3---0-----------6-------
A---3---5---3---0-----------6-------
D---3---5---3---0-------0---6---0---

-repeat entire thing
Title: Re: Melvins Tabs
Post by: Metalhead Cow on October 26, 2006, 01:51:35 PM
Oh, okay thanks.
I'm going to try and start it again from the top:

riff one:




Title: Re: Melvins Tabs
Post by: Metalhead Cow on October 26, 2006, 01:53:42 PM
There, that came out fairly well. More coming later.
Title: Re: Melvins Tabs
Post by: Eponymous on November 01, 2006, 10:03:56 PM
You know, these could be posted straight into the wiki.  *cough cough*
Title: Re: Melvins Tabs
Post by: Metalhead Cow on November 01, 2006, 10:41:48 PM
Blood Witch:
drop d *= palm mute


E
Title: Re: Melvins Tabs
Post by: Metalhead Cow on November 01, 2006, 10:49:12 PM
the 5s and 3s are supposed to be played together
Title: Re: Melvins Tabs
Post by: Vcavallo on November 01, 2006, 11:23:10 PM
nice
Title: Re: Melvins Tabs
Post by: Verbalmasturbation on November 09, 2006, 12:29:22 AM
holy shit got some of these down and i suck at guitar
Title: Re: Melvins Tabs
Post by: Metalhead Cow on November 10, 2006, 02:34:14 PM
The Mechanical Bride:
Drop D tuning




E
B
Title: Re: Melvins Tabs
Post by: Metalhead Cow on November 10, 2006, 03:49:42 PM
 Rat Faced Granny:
drop D tuning


riff one
Title: Re: Melvins Tabs
Post by: Smellis on November 10, 2006, 07:07:37 PM
Damn you are good! I'm just trying to figure this shit out!
Title: Re: Melvins Tabs
Post by: anaconda on November 10, 2006, 08:16:34 PM
i don't read tabs, but even i can understand that! nice work metalhead
Title: Re: Melvins Tabs
Post by: Metalhead Cow on November 13, 2006, 09:10:46 PM
Thanks for the compliments! It's time consuming so it's nice to know that it's worthwhile to others.  I figure I'll tab A History Of Drunks or You've Never Been Right next, sometime later this week when I'm less busy.
Title: Re: Melvins Tabs
Post by: Smellis on November 14, 2006, 06:28:58 AM
yeah thanks it's cool to have the new album tabbed out so quick!
Title: Re: Melvins Tabs
Post by: Metalhead Cow on November 14, 2006, 02:47:19 PM
A History Of Drunks:
drop D tuning


You may want to listen to the song to get the rhythm down exactly.
palm muting is indicated by astericks
Title: Re: Melvins Tabs
Post by: Metalhead Cow on November 14, 2006, 02:48:17 PM
I have to get going now and there's still some glitches I have to touch up in the formatting, but I'll edit it and fix it later.

*edit*-there, that's good enough. enjoy!
Title: Re: Melvins Tabs
Post by: anaconda on November 16, 2006, 09:37:47 PM
buzz is the king of palm muting!
Title: Re: Melvins Lyrics + Tab of the Day
Post by: TJP on November 29, 2006, 03:54:59 PM
This one's for Steve!

If I Had An Exorcism


Intro [x = Finger mute.]
   1   2   3   4   1   2   3   4     1   2   3   4   1   2   3   4     
 e---------------------------------|---------------------------------
 b---------------------------------|---------------------------------
 g---------------------------------|---------------------------------
 d-x-x-x-x---------x-x-------------|-x-x-------------x-x-----x-x-----
 a-x-x-x-x---------x-x-------------|-x-x-------------x-x-----x-x-----
 e-x-x-x-x---------x-x-------------|-x-x-------------x-x-----x-x-----

 e---------------------------------|---------------------------------
 b---------------------------------|---------------------------------
 g---------------------------------|---------------------------------
 d-----------------x-x-x-x---------|-----------------x-x-x-----------
 a-----------------x-x-x-x---------|-----------------x-x-x-----------
 e-----------------x-x-x-x---------|-----------------x-x-x-----------
                                                            "Like some-
body took a coathanger"   
 e---------------------------------|---------------------------------
 b---------------------------------|---------------------------------
 g---------------------------------|---------------------------------
 d-----------------x-x-x-----------|-----------------x-x-x-----------
 a-----------------x-x-x-----------|-----------------x-x-x-----------
 e-----------------x-x-x-----------|-----------------x-x-x-----------

 e---------------------------------|---------
 b---------------------------------|---------
 g---------------------------------|---------
 d-----------------x-x-x-----------|---------
 a-----------------x-x-x-----------|---------
 e-----------------x-x-x-----------|---------

 e---------------------------------|---------------------------------
 b---------------------------------|---------------------------------
 g---------------------------------|---------------------------------
 d---------------------------------|---------------------------------
 a-3-3-3---7-----------7-----------|-3-3-3---7-----------7-----------
 e-1-1-1---0-----------0-----------|-1-1-1---0-----------0-----------
   
 e---------------------------------|-----------------------------
 b---------------------------------|-----------------------------
 g---------------------------------|-----------------------------
 d---------------------------------|-----------------------------
 a-3-3-3---7-----------3-----------|---------7-6-7-6-7-6-4-------
 e-1-1-1---0-----------1-----------|---------5-4-5-4-5-4-2-------
   
 e---------------------------------|-------------
 b---------------------------------|-------------
 g---------------------------------|-------------
 d---------------------------------|-------------
 a-4---5---3---8-------5-------7---|-----5-------
 e-2---3---1---6-------3-------5---|-----3-------
 
This isn't right but it sounds ok
 e---------------------------------|---------------------------------
 b---------------------------------|---------------------------------
 g---------------------------------|---------------------------------
 d-------3^----------------3^------|-------2^------------------------
 a---------------------------------|---------------------------------
 e-1-1-0-----0-0-0-0-1-0-0---0-0-0-|-0-0-0-----0-0-0-0-0-0-0-0-------

Play these two bars a few times
 e-0---0---0---0---0---0---0---0---|-0---0---0---0---0---0---0---0---
 b-6^--6---6---6^--6---6---6---6---|-6^--6---6---6---6---6---6---8^--
 g---------------------------------|---------------------------------
 d---------------------------------|---------------------------------
 a---------------------------------|---------------------------------
 e---------------------------------|---------------------------------
   Harmonics....

 e-0---0---0---0---0---0---0---0---|-0---0---0---0---0---0---0---0---
 b-5^--5---5---5---5---5---5---5^--|-5^--5---5---5---5---5---5---5^--
 g---------------------------------|---------------------------------
 d---------------------------------|---------------------------------
 a---------------------------------|---------------------------------
 e---------------------------------|---------------------------------
   Harm...

Keep playing this until the song ends:

 e-0---0---0---0---0---0---0---0---|-0---0---0---0---0---0---0---0---
 b-5---5---5---5---5---5---5---5---|-5---5---5---5---5---5---5---5---
 g---------------------------------|---------------------------------
 d---------------------------------|---------------------------------
 a---------------------------------|---------------------------------
 e---------------------------------|---------------------------------
   Harm...


Bass outro:

 g---------------------------------------|
 d---------------------------------------|
 a-3-3-3-3-2-2-2-2-----------------------|
 e-----------------2-2-2-2-3-3-2-3-2-3-0-|

 Play that a number of times.

then:

 g---------------------------------|--------------------------------|
 d---------------------------------|--------------------------------|
 a-3-3-3-3-------------------------|--------------------------------|
 e---------3-3-3-3-5-5-5-5-5-5-5-5-|3-3-3-3-3-3-3-3-2-2-2-2-2-2-2-2-|

 g---------------------------------
 d---------------------------------
 a---------------------------------
 e-0-ring--------------------------

Some Parts of this tab dont sound right so i changed the parts to what i can hear [does anyone agree?]
Title: Re: Melvins Tabs
Post by: Dr Geek on December 07, 2006, 11:06:15 AM
Am I the only one who can't see the Senile Animal tabs correctly?
Title: Re: Melvins Tabs
Post by: Dead Guy Ale on January 01, 2007, 01:29:23 PM
Anyone out there got "See how pretty, See how smart"  off the Maggot figured out  ?


/besides Buzz
Title: Re: Melvins Tabs
Post by: Mash on January 29, 2007, 04:30:58 AM
Hey guys, I wrote a tab for Big Business' cover of the Devo track "Be Stiff".
You can find it here: http://www.ultimate-guitar.com/tabs/b/big_business/be_stiff_btab.htm (http://www.ultimate-guitar.com/tabs/b/big_business/be_stiff_btab.htm)
Keep an eye out for my Big Business fan site, it'll be up in a couple of weeks!
Cheers
Matt
Title: Re: Melvins Tabs
Post by: Pringles on March 13, 2007, 11:05:03 PM
I'm searching for Halo of fly, Melvins version.
Title: Re: Melvins Tabs
Post by: norecess on March 14, 2007, 01:44:08 AM
Keep an eye out for my Big Business fan site, it'll be up in a couple of weeks!

Are you sure!?
Title: Re: Melvins Tabs
Post by: TJP on April 13, 2007, 10:58:38 AM
as it was - mELVInS

tabbed by TJP


 |riff1                    |riff2                         |riff3
e|-------------------------|------------------------------|----------------------------------------------|
b|-------------------------|------------------------------|----------------------------------------------|
g|-------------------------|---------xxx------------------|--------xxx-----------------------------------|
d|-------------------------|---------xxx---------------54-|--------xxx-----------54----------------------|
a|-4-444-4-444-4-444-------|-4-444-4-xxx44-4-22-432-54-32-|-4-444-4xxx444-432-54-32-55-87-34--4-45425~~~~|
e|-2-222-2-222-2-222-3~~~~-|-2-222-2-xxx22-2-00-210-32----|-2-222-2xxx222-210-32----33-65-12--2-23203~~~~|
     ...   ...   ...           ...      ..                    ...


 |riff4                   x4  | riff5                |fill1     |
e|----------------------------|----------------------|----------|
b|----------------------------|----------------------|----------|
g|----------------------------|----------------------|----------|
d|-------------------------54-|----------------------|----------|
a|-4-444-4-444-4----432-54-32-|-55-87-34--4-45425~~~~|-55-87-22-|
e|-2-222-2-222-2----210-32----|-33-65-12--2-23203~~~~|-33-65-00-|
     ...   ...


        |riff6                                   x2 |
e|------|-------------------------------------------|
b|------|-------------------------------------------|
g|------|-------------------------------------------|
d|-9----|---x9-76---67---x9-------x9-76---67-|-x9---|
a|-7-9--|-2-x7-54-7-45-2-x7-9---2-x7-54-7-45-|2x7-9-|
e|---7--|-0-------5----0----7~~~0-------5----|0---7-|
                                             |___dont play this part the 2nd time


     
 |riff7                                   x2 | fill2     |
e|-------------------------------------------|-----------|
b|-------------------------------------------|-----------| Then play riff6 like before
g|-------------------------------------------|-----------| then play riff7 until the end
d|-------------------------------------------|--x9-------|
a|-77-7-777-78-88-8-8888-87-77-7-7777-78~~---|-2x7-9-----|
e|-55-5-555-56-66-6-6666-65-55-5-5555-56~~~~~|-0---7~~~~-|
   ..   ...    ..   ....    ..   ....
Title: Re: Melvins Tabs
Post by: TJP on May 08, 2007, 01:53:14 PM
Melvins-its shoved

Tabbed by TJP
         
 
[00.31]        |[00:45]          x4|
e|-------------|-------------------|
b|-------------|-------------------|
g|--9~~~~~~~~~-|-99p77p0-----------|
d|-------------|--------99p77p0----|
a|-------------|----------------7~-|
e|-------------|-------------------|
 
 
e|-------------------------------------------------------------------|
b|-------------------------------------------------------------------|
g|-------------------------------------------------------------------|
d|---------------------------------------2-----2-----2-----2---2---2-|
a|-7-----6-----5-----4-----3-------2-----2-----2-----2-----2---2---2-|
e|---000---000---000---000---00000---000---000-0-000-0-000-0-0-0-0-0-|
 
 
 [verse]
e|---------------------------------|
b|---------------------------------|
g|---------------------------------|
d|-----------------------2-2-------|
a|-2-2-2-4-4-5-5---5-5-5-0-0-2-2-5-|
e|-0-0-0-0-0-3-3-0-3-3-3-----0-0-3-|
   . . . . . . . . . . .     . . .
 
                 |                                 x3|
e|---------------|-----------------|-----------------|-----------------|
b|---------xxxxx-|-----------------|-----------------|-----------------|
g|---------xxxxx-|-----------------|-----------------|-----------------|
d|---------xxxxx-|-2-2---2---------|-----------------|-2-2---2---------|
a|-2-2-----------|-0-0---0---------|-2-2-2-4-4-5-5---|-0-0---0---------|
e|-0-0-3-0-------|-----3---3-0-3-0-|-0-0-0-0-0-3-3-0-|-----3---3-0-3-0-|
 
 
e|-----------------------------|
b|-----------------------------|
g|-----------------------------|
d|-2-2--2-2-2-5--5-5-5-5-5-5-5-|
a|-2-2--2-2-2-5--5-5-5-5-5-5-5-|
e|-0-0--0-0-0-3--3-3-3-3-3-3-3-|
 
 
e|--------------------------------|
b|--------------------------------|
g|--------------------------------|
d|--------------------------------|
a|2-2-2-2-2-2-2-2-2-2-2-2-2-2-2-2-|
e|0-0-0-0-0-0-0-0-0-0-0-0-0-0-0-0-|
 
 
 [2:17]
e|---------------------------------|
b|---------------------------------|
g|---------------------------------|
d|-----2-----2---------------------|
a|-------------5-0-2-5-2-0-5-4-5-4-|
e|-0-0---0-0-----------------------|
 
 
[2:21]                        x2|
e|------------------------------|
b|------------------------------|
g|------------------------------|
d|---9----9-7-----7-----7-6-7-6-|
a|---7----7-5-7-9-5-9-7-5-4-5-4-|
e|00---00-----5-7---7-5---------|
 
 
[outro]
e|-------------------------------|
b|-------------------------------|
g|-------------------------------|
d|---------4-5-6-5---------4-5---|
a|-7-6-3-4-2-3-4-3-6-5-3-4-2-3-2-|
e|-5-4-1-2---------4-3-1-2-----0-|
 
FIN.
Title: Re: Melvins Tabs
Post by: TJP on May 12, 2007, 12:49:02 PM
i just made a couple of changes

Vile-Melvins


|---|
|---|
|---|
|-0-|
|-0-|
|-0-|
           
|---------------------------------------------------------------|
|---------------------------------------------------------------|
|---------------------------------------------------------------|
|-3^~~-0~~-0-0-3^~~-0-3^~~-0~~-6~~-5~~-0-0-3^~~-0-0-6~~---------| x2
|-3^~~-0~~-0-0-3^~~-0-3^~~-0~~-6~~-5~~-0-0-3^~~-0-0-6~~-6~~-5~~-|
|-3^~~-0~~-0-0-3^~~-0-3^~~-0~~-6~~-5~~-0-0-3^~~-0-0-6~~---------|
                                       PM.      PM.
                     
                                              1         2
|-------------------------------------------|---------|-----|
|-------------------------------------------|---------|-----|
|-------------------------------------------|---------|-----|
|-0-0-0-0-----3~~-0-0-0-6~~-5~~-6~~-3-0-3-0-|-0-0-----|-3-0-|
|-0-0-0-0-5~~-3~~-0-0-0-6~~-5~~-6~~-3-0-3-0-|-0-0-6~~-|-3-0-|
|-0-0-0-0-----3~~-0-0-0-----5~~-6~~-3-0-3-0-|-0-0-----|-3-0-|
  PM.....                                     PM..      PM..
                         
Verse -

|---------|
|---------|
|---------|
|-0-0-0-0-| repeat a lot of times
|-0-0-0-0-|
|-0-0-0-0-|
  PM.....
             
             
|-----|
|-----|
|-----|
|-0~~-|
|-0~~-|
|-0~~-|
w/bar
             
               

|---------------------------------|--------|
|---------------------------------|--------|
|---------------------------------|--------|
|---------------------------------|--------|
|-6~~---5---------6~-------5~-----|--------|
|----00---3~~0-00---5-6-66---3~~0-|-00-----|
                                  | ^^only played the first time
         
           
|---------|
|---------|
|---------|
|-0-0-0-0-| repeat a lot of times
|-0-0-0-0-|
|-0-0-0-0-|
  PM.....
             
|---------------|
|---------------|
|---------------|
|-8-8-8-8-8-6-7-|
|-6-6-6-6-6-4-5-|
|---------------|
                   
|---------|
|---------|
|---------|
|-0-0-0-0-| repeat a lot of times
|-0-0-0-0-|
|-0-0-0-0-|
  PM.....
             
|---------------|
|---------------|
|---------------|
|-8-8-8-8-8-6-7-|
|-6-6-6-6-6-4-5-|
|---------------|
         

FIN.
Title: Re: Melvins Tabs
Post by: TJP on May 12, 2007, 03:52:31 PM
Full & Correct version

Pitfalls In Serving Warrants

tabbed by TJP



intro/riff 1[distortion]

   1   +   2   +   3   +   4   +     1   +   2   +   3   +   4   +   
e ---------------------------------|---------------------------------|
b ---------------------------------|---------------------------------|
g ---------------------------------|---------------------------------|
d ---------------------------------|---------------------------------|
a ---------------------------------|---------------------------------|
E -0-0-0-0-0-0-7-\\----3-------3-/-|-5-----------1-------0-------1---|
                                                               



e|---------------------------------------------------------------------------|
b|---------------------------------------------------------------------------|
g|---------------------------------------------------------------------------|
d|---------------------------------------------------------------------------|
a|-5/7-7--7-7-7----7-7-7/9-9-99999999\3--3-3----3-3---3/7-7-7----7-7---7/9-3-|
E|-3/5-5--5-5-5-00-5-5-5/7-7-77777777\1--1-1-00-1-1-0-1/5-5-5-00-5-5-0-5/7-1-|



                           
 [clean]
e|---------------------------------|---------------------------------|
b|---------------------------------|---------------------------------|
g|---------------------------------|---------------------------------|
d|---------------------------------|---------------------------------|
a|---------------------------------|---------------------------------|
E|-0-0-0-0-0-0-7-\\----3-------3-/-|-5-----------1-------0-------1-0-|



                 
                |                           x2| 
e|--------------|-----------------------------|
b|--------------|-----------------------------|
g|--------------|-----------------------------|
d|--------------|-----------------------------|
a|--------------|----7------5------2-2----2-2-|
E|-0-0-----0-0--|-------8------5--------------|


                             


outro x3
   1   +   2   +   3   +   4   +     1   +   2   +   3   +   4   +   
e ---------------------------------|---------------------------------|
b ---------------------------------|---------------------------------|
g ---------------------------------|---------------------------------|
d ---------------------------------|---------------------------------|
a -----7-6-----5-----------5-------|---------------------------------|
E -0-------7-------7---6-----6-3---|-4b-ring-------------------------|


                                         

   1   +   2   +   3   +   4   +     
e ---------------------------------|
b ---------------------------------|
g ---------------------------------|
d ---------------------------------|
a ---------------------------------|
E -4b6-ring------------------------|


Title: Re: Melvins Tabs
Post by: TJP on May 16, 2007, 12:19:01 PM
Never seen this tabbed correctly on guitar before so i thought i would give it a go


Influence of Atmosphere - Melvins

Tabbed by TJP
                                   
[The dots are P.M.]
                               
                                 
~~~~~~~~~~~~~~~~~~~~~~I N T R O~~~~~~~~~~~~~~~~~~~~~~~~~~~~~~~~~~~~~~~

e|--------------------------------------|-------------------------------|
b|--------------------------------------|-------------------------------|
g|--------------------------------------|-------------------------------|
d|--------0------0-------0------0-------|-3-2-3-2-3-4-3-4-3-2-3-2--0----|
a|-0------0---6^-0---6-6-0----6-0---6-6-|-3-2-3-2-3-4-3-4-3-2-3-2--0----|
D|-0------0---6^-0---6-6-0----6-0---6-6-|-3-2-3---3---3---3-2-3-2--0----|
                                               |__________|
                                                play around
                                                with the P.H.   

e|------------|
b|------------|
g|------------|
d|------------|
a|-6^-0---6-6-|
D|-6^-0---6-6-|
                                                                                   
                                                                     
e|-------------------------------|----------------|
b|-------------------------------|----------------|
g|-------------------------------|----------------|
d|-3-2-3-2-3-4-3-4-3-2-3-2--0----|----------------|
a|-3-2-3-2-3-4-3-4-3-2-3-2--0----|-6^-0---6-6-0---|
D|-3-2-3---3---3---3-2-3-2--0----|-6^-0---6-6-0---|
                                                                                                   
                                                                                                                 
                                                                                                 
~~~~~~~~~~~~~~~~~~~~~~~~~~~V  E  R  S  E~~~~~~~~~~~~~~~~~~~~~~~~~~~~~~~~~~~~~~~~~~~

e|-------------------------------------------------------------------------------------|
b|-------------------------------------------------------------------------------------|
g|-------------------------------------------------------------------------------------|
d|-----3------------------3------------------3-----------------3-------------5-5-----3-|
a|-2-2-3--------------2-2-3-2-0-1-2-0-3--2-2-3-2-0-1-2-0-3-2-2-3-2-0-1-2-0-3-5-5-0-0-3-|
d|-2-2---2-0-1-2-0-3--2-2---2-0-1-2-0-3--2-2---2-0-1-2-0-3-2-2---2-0-1-2-0-3-5-5-0-0-3-|
   . . |____________|   .   |__________| . .   . . . . . . . .   . . . . . .     . .
        use a bit of         use a bit
           P.H.              of P.H.


                                                       
e|------------------------------------------------------|
b|--------------------------------------xx----xx--------|
g|--------------------------------------xx----xx--------|
d|-----------------3-------------5-5-----3-3------0-----|
a|-2-0-1-2-0-3-2-2-3-2-0-1-2-0-3-5-5-0-0-3-3------0-----|
d|-2-0-1-2-0-3-2-2---2-0-1-2-0-3-5-5-0-0-3-3------0-----|
   . . . . . . . .   . . . . . .     . .
 

                                                                           

~~~~~~~~~~~~~~~~~~~~~O U T R O~~~~~~~~~~~~~~~~~~~~~~~~~~~~~~~~~~~~~~~~~
                |                          x2|
e|--------------|----------------------------|------------------------|
b|--------------|----------------------------|------------------------|
g|--------------|----------------------------|------------------------|
d|--------------|----------------------------|------------------------|
a|--------------|-0-0-3-0-2--2-2-2-0-2-3-1-0-|-0-0-3-0-2--2-2-2-0---3-|
d|-2-0-2-3-1-0--|-0-0-3-0-2--2-2-2-0-2-3-1-0-|-0-0-3-0-2--2-2-2-0---3-|
                  . .   .    . .               . .   .    . .



FIN.
Title: Re: Melvins Tabs
Post by: TJP on May 17, 2007, 12:03:45 PM
the tabs for this never sounded right so i thought i would give it a go
i dont know if this is the way Buzz plays it but i think it sounds ok
     
Agonizer- mELVInS
           
               
Tabbed by TJP
           
             
  ~~~~~~~~~~~~~~~~~~~~~~~~~~~~~~~~~~I N T R O~~~~~~~~~~~~~~~~~~~~~~~~~~~~~~~~~~~~~~~~~~~
e|----------------------------------------------------------------------------------------------|
b|----------------------------------------------------------------------------------------------|
g|-----------------------------------------------5------------------------------------------8-7-|
d|-4----------5------------4----------7-----------6~-------------5------------4-------4---------|
a|-4-4-5-6--6-5-4-5-6-5--5-4-4-5-6--6-5-0-0-0--0-----0-0-0-0-0-6-5-0-0-0--6-5-4-4h5-x-4-4-5-----|
D|---4-5-6--6---4-5-6-5--5---4-5-6--6---0-0-0--0-----0-0-0-0-0-6---0-0-0--6-5---4h5-x---4-5-----|
                                        . . .  .     . . . . .     . . .  .                 P.H
                   
                     
                         
  ~~~~~~~~~~~~~~~V E R S E~~~~~~~~~~~~~~~~~~~~~~~~  X5|
e|----------------------------------------------------|
b|----------------------------------------------------|
g|----------------------------------------------------|
d|-------------6-4-4-4--4-5-0-------------------6-5-0-|
a|-0-0-0--0--0-6-4-4-4--4-5-0--0-0-0--0-0-0--0--6-5-0-|
D|-0-0-0--0--0---4-4----4-5-0--0-0-0--0-0-0--0--6-5-0-|
   . . .  .  .                 . . .  . . .  .
           
             
 ~~~~~~~~~~~~~O U T R O~~~~~~~~~~~~~~~~  X2|
e|-----------------------------------------|
b|-----------------------------------------|
g|-----------------------------------------|
d|-----7---7---7------------8--8~-8--------|
a|---7---7---7---7--------8----8~---8------|
D|-7---------------0-00-8-------------0-00-|
                     ..                 ..

         
 FIN.
Title: Re: Melvins Tabs
Post by: sebo on May 17, 2007, 12:12:15 PM
Nazi?  :?
Title: Re: Melvins Tabs
Post by: TJP on May 17, 2007, 12:32:51 PM
 :shock:

Its just a picture

but what do you think of the tabs?
Title: Re: Melvins Tabs
Post by: norecess on May 17, 2007, 01:31:12 PM
Nazi?  :?

Swastika.
Title: Re: Melvins Tabs
Post by: TommyHC on May 23, 2007, 12:53:26 PM
TJP you should Tab out "run around" from mangled demos and "Four letter woman" from leech.  :)
Title: Re: Melvins Tabs
Post by: TJP on May 24, 2007, 11:22:38 AM
im ashamed to say i dont have the mangled demos but ive got "four letter woman" on vinyl so ill try
Title: Re: Melvins Tabs
Post by: TJP on June 08, 2007, 01:52:16 PM
Just made a couple of changes

                   
Green honey - Melvins
               
tabbed by TJP
               
Intro
                  |                   1,2|                           3|
|-----------------|-------------|--------|----------------------------|
|-----------------|-------------|--------|----------------------------|
|-----------------|-------------|--------|----------------------------|
|-----------------|-------------|--------|----------------------------|
|-1-0-0-1-0-0-1-0-|-12-0-0-12-0-|-3^-2-3-|-0-9-0-0-10-0-0-13-0-0-12~~-|
|-1-0-0-1-0-0-1-0-|-12-0-0-12-0-|-3^-2-3-|-0-9-0-0-10-0-0-13-0-0-12~~-|
                  | Play x 3
                                     
Verse
                1,2,4,5|                         3,6|
|-------------|--------|----------------------------|
|-------------|--------|----------------------------|
|-------------|--------|----------------------------|
|-------------|--------|----------------------------|
|-12-0-0-12-0-|-3^-2-3-|-0-9-0-0-10-0-0-13-0-0-12~~-|
|-12-0-0-12-0-|-3^-2-3-|-0-9-0-0-10-0-0-13-0-0-12~~-|
  Play x 6
   
     
|---------------------------------------------------------------------------|
|---------------------------------------------------------------------------|
|---------------------------------------------------------------------------|
|---------------------------------0-0---------------------------------------|
|---------------------------------0-0---------------------------------------|
|-1-0-0-1-0-0-1~~-0-1-0-0-1-0-0-1-0-0---0-0-1-0-0-1-0-0-1~~-0-1-0-0-1-0-0-1-|
                    . . . . . . .                             . . . . . . .
               
|------------------------------------------------------|
|------------------------------------------------------|
|------------------------------------------------------|
|--0-0-------------------------------------------------|
|--0-0-5---------------4-3----------3-------------2-1--|
|--0-0---4-5-5^~~~-5-5-----4-3-4~~4---2-3-3^~~3-3-2-1--|
   
   
Outro
                                 x2|
|----------------------------------|-----------------------------------------------------|
|----------------------------------|-----------------------------------------------------|
|---------------------7-6-7-6-7-6--|-----------------------------------------------------|
|---0-0-0-0-0-0-0-0-0-5-4-5-4-5-4--|-----0---------------------------0-------------------|
|---0-0-0-0-0-0-0-0-0--------------|-0-0-0-0-0-0-0-0-5-4-5-4-5-4-0-0-0-0-0-0-0-0-5-4-5-4-|
|---0-0-0-0-0-0-0-0-0--------------|-0-0-0-0-0-0-0-0-5-4-5-4-5-4-0-0-0-0-0-0-0-0-5-4-5-4-|
    . .   . . . . . .                . .                         . .   
             
               
|--------|
|--------|
|--------|
|-4--4-4-|
|-4--4-4-|
|-4--4-4-|

FIN.
Title: Re: Melvins Tabs
Post by: TJP on June 09, 2007, 04:21:06 PM
Never seen this tabbed on guitar so i thought i would give it a go


Heater moves and eyes - Melvins
         
tabbed by TJP
 
                       
intro                                x3|
e|-------------------------------------|-----------------------------------------|
b|-------------------------------------|-----------------------------------------|
g|-------------------------------------|-----------------------------------------|
d|-------------------------------------|--------------5-6-6~~~-------------------|
a|-2--2-2-2--8-7-2-2-2--8-7-2-2-2--8-7-|-2--2-2-2-4-5-3-4-6~~~-7-6-8-7-6-7-4-5-2-|
e|-0--0-0-0--6-5-0-0-0--6-5-0-0-0--6-5-|-0--0-0-0-2-3-----4~~~-5-4-6-5-4-5-2-3-0-|
        . .        . .        . .             . .               P. H.
             
                                        |        |                                 x3|
e|--------0----0--------0---------------|--------|-----------------------------------|
b|-------0-----0-----00--------00-------|--------|-----------------------------------|
g|-----------------------------44-xx-xx-|--------|-----------------------------------|
d|--------------------------------xx-xx-|-----x--|--------------------------------x--|
a|-2--2--2--2--2--2--2--2--2--2---xx-xx-|-8-7-x7-|-4-2-4-2-4-2-2-4-2-2-2-4-2/-8-7-x7-|
e|-0--0--0--0--0--0--0--0--0--0---xx-xx-|-6-5-x5-|-2-0-2-0-2-0-0-2-0-0-0-2-0/-6-5-x5-|
   .  .  .  .  .  .  .  .  .  .                      .   .   . .   . . . 
       
                                            x2|                                                        x2|
e|--------------------------------------------|----------------------------------------------------------|
b|--------------------------------------------|-0-2-5-7-8-8-8-8-8-8-8-8-8-8-8-8-9^-9^-9^-9^-9^-9^-9^--0--|
g|--------------------------------------------|-0-2-5-7-8-8-8-8-8-8-8-8-8-8-8-8-9^-9^-9^-9^-9^-9^-9^--0--|
d|---------------------------7^---------------|-------------------------------------------------------0--|
a|-2--2-2-2--8-7-2--2-2--8-7-5^-2--2-2--8-7-7-|-------------------------------------------------------0--|
e|-0--0-0-0--6-5-0--0-0--6-5----0--0-0--6-5-5-|----------------------------------------------------------|
       
         
                                 |                                  x3|
e|-------------------------------|------------------------------------|
b|-------------------------------|------------------------------------|
g|-------------------------------|------------------------------------|
d|-------------------------------|------------------------------------|
a|-2--2-2-4--4---4-5-7~~~~-2-----|-2-2-2-2-2-2-2-2-2-2-2-2-2-2--3-2-5-|
e|-0--0-0-2--2-0-2-3-5~~~~-0-----|-0-0-0-0-0-0-0-0-0-0-0-0-0-0--1-0-3-|
      . .
     
                                x3|
e|--------------------------------|-----------------------------------------------------------|
b|--------------------------------|-----------------------------------------------------------|
g|--------------------------------|-----------------------------------------------------------|
d|--------------------------------|-----------------------------------------------------------|
a|-2--2-2-4--4---4-5-7~~~2--3-2-5-|-2--2-2-4--4---4-5-7~~~~----7^~~~~^~~~~~~^~~8^~~~^~~~~~~~~~|
e|-0--0-0-2--2-0-2-3-5~~~0--1-0-3-|-0--0-0-2--2-0-2-3-5~~~~0-0-5^~~~~^~~~~~~^~~6^~~~^~~~~~~~~~|
           
         
                    x2|
e|--------------------|----------------------------------------------------------|
b|--------------------|----------------------------------------------------------|
g|--------------------|----------------------------------------------------------|
d|--------------------|----------------------------------------------------------|
a|-8-5-8-8--8-8-8-8-8-|-8-9-8--8-8--8-9-8--8-8--8-9-8--9-8-9-8-9-8-9-8--8^~~~~-8-|
e|-6-7-6-6--6-6-6-6-6-|-6-7-6--6-6--6-7-6--6-6--6-7-6--7-6-7-6-7-6-7-6--6^~~~~-6-|
                . .            . .         . .
               
FIN.
Title: Re: Melvins Tabs
Post by: TJP on June 20, 2007, 08:09:35 AM
Echo Head - MelviNs
tabbed by tjp 
                 
                          x2|
e|--------------------------|---|
B|--------------------------|---|
G|--------------------------|---|
D|--------------------------|---|
A|--0h3-0--0-0-1p0--0-0-3~~~|-0-|
D|--0h3-0--0-0-1p0--0-0-3~~~|-0-|
             
                                            x2|
e|--------------------------------------------|
B|---------------1x1-0x-1-2-2-1-0-1-2-0-2-3/--|
G|---------------1x1-0x-1-2-2-1-0-1-2-0-2-3/--|
D|--------------------------------------------|
A|-6x6-5-x5-----------------------------------|
D|-6x6-5-x5-6-7~~-----------------------------|         
             
                          x2|
e|--------------------------|-------|-------------------------|
B|--------------------------|-------|-------------------------|
G|--------------------------|---x-x-|-------------------------|
D|--------------------------|---x-x-|-------------------------|
A|--0h3-0--0-0-1p0--0-0-3~~~|-0-x-x-|-0h3-0--0-0-1p0--0-0-3-0-|
D|--0h3-0--0-0-1p0--0-0-3~~~|-0-----|-0h3-0--0-0-1p0--0-0-3-0-|
               
                     
e|-----------------------------------------------------------------------------------|
B|----------------1x1-0x-1-2-2-1-0-1-2-0-2-3-<Let Ring->>>>>>>>>>>>>>>>>>>>>>>>>>>>>-|
G|----------------1x1-0x-1-2-2-1-0-1-2-0-2-3-<--------->>>>>>>>>>>>>>>>>>>>>>>>>>>>>-|
D|-----------------------------------------------------------------------------------|
A|-6x6-5-x5--------------------------------------------------------------------------|
D|-6x6-5-x5-6-7~~--------------------------------------------------------------------|
         
--------------------------------------------------------------------------------------------------------------------------
Dont Piece Me - mELVInS
tabbed by tjp       
         
           
         Fast intro
|----------------------------------------------------------------------|
|----------------------------------------------------------------------|
|----------------------------------------------------------------------|
|------7-6-----5-4-5-----7-6----7-7-7-----5-4-----7-6------5-4-5-5-5-5-|
|----------------------------7--5-5-5-----------------7----------3-3-3-|
|--5-5-----3-3-------5-5--------------3-3-----5-5-------3--------------|
       
         
     Slow
|------------------------------------------------------------------|
|------------------------------------------------------------------|
|------------------------------------------------------------------|
|-----7-6------5-4-7------7-6---x7-7-7-----5-4-----7-6-------5-4---|
|------------------5----------7-x5-5-5-----------------7---------5-|
|-5-5------3-3--------5-5--------------3-3-----5-5-------3-3-------|

 
 verse                                                                          x2|
|---------------------------------------------------------------------------------|---------|
|---------------------------------------------------------------------------------|---------|
|---------------------------------------------------------------------------------|---------|
|---------------------------------------------------------------------------------|---------|
|-10-9-7-0-0-3-0-0-0-10-9-7-0-3-3-3-3-3-10-9-7-0-0-3-0-0-0-1p0-0-1p0-0-1p0-/4~~~~-|---------|
|-10-9-7-0-0-3-0-0-0-10-9-7-0-3-3-3-3-3-10-9-7-0-0-3-0-0-0-1p0-0-1p0-0-1p0-/4~~~~-|-3~~~~~~-|
         . .     . .                           . .     . .     .     .
             
|--------------------------------------------------------------------------------------------|
|--------------------------------------------------------------------------------------------|
|--------------------------------------------------------------------------------------------|
|------------------------------4-----5p4-x-------------3-----4p3-------------------4-----5p4-|
|----------------------------4-4-4-4-5p4-x-4~--------3-3-3-3-4p3-3---------------4-4-4-4-5p4-|
|-4b~~~~~~~~~-3~~~~~~~~//-\\-4---4-4-----x---5-4-5-3-3---3-3-------4-3-4p3h3-3h4-4---4-4-----|
                                 . .                     . .                         . .
           
|-------------------------------------|
|--------------------------xxxx-------|
|--------------------------xxxx-------|
|-4~----------------3-----4xxxx-5~~~~-|
|---5-4-5p4h5-4---3-3-3-3-4xxxx-3~~~~-|
|---------------5-3---3-3-------------|
                      . .
                                                                    x2|
|---------------------------------------------------------------------|
|---------------------------------------------------------------------|
|---------------------------------------------------------------------|
|-0-------1-------4-------3------0-----0----1----1----4----4----3-----|
|-0---0-0-1---0-0-4---0-0-3------0-0-0-0----1----1----4----4----3~~~--|
|-0---0-0-1---0-0-4---0-0-3------0-0-0-0----1----1----4----4----3~~~--|
                                   . .
       
    solo                      | you get the idea      |
|-----------------------------|-----------------------|------------------------------|
|-----------------------------|-----------------------|-8b9--------------------------|
|-----------------------------|-7-7-8-8-11-11-10~~--10|----/5~~----------------------|
|-----------2~~---------------|-7-7-8-8-11-11-10~~--10|---------4-----4---4-5-6b7--5-|
|-5~~555555-------------------|-----------------------|-----------4-5---5------------|
|---------------3b4~~~~-3-----|-----------------------|------------------------------|
 
   
|---------------------------------------------------|
|---------------------------------------------------|
|--6b-6b-00-5b-5b-00-6b-6b-00-5b-5b~~~~~------------|
|----------------------------------------[4]----[2]-|
|----------------------------------------[4]-or-[2]-|
|----------------------------------------[4]----[2]-|
       
FIN.
 
Title: Re: Melvins Tabs
Post by: Stareadactyl on July 01, 2007, 01:46:01 PM
does anyone have all of Civilized Worm?
i looked through the pages, but couldn't see it, thanks.
Title: Re: Melvins Tabs
Post by: norecess on July 25, 2007, 06:51:57 AM

g ----------------------------------------------------------------
d --------------------------------5-5-5-5-5-5-5-5-7-7-7-7-7-7-7-7-
a ----------------5-5-5-5-5-5-5-0---------------------------------
e 5-5-5-5-5-5-5-5-------------------------------------------------


Small remark, not that anyone cares. If you play the last note on the A string open, it sounds even more accurate!
Title: Re: Melvins Tabs
Post by: Pringles on July 28, 2007, 07:46:47 PM
Can someone tab Arnie from the Hostile Ambiant Takeover single?
Title: Re: Melvins Tabs
Post by: bathroom creep on August 23, 2007, 06:51:04 AM
Could anyone post a good version of 'Civilized Worm'?
I've been trying to tab it out myself, but it doesn't sound right...
By the way, I'm new here.
Title: Re: Melvins Tabs
Post by: Billy Fish on August 24, 2007, 04:51:15 PM
Can someone tab Arnie from the Hostile Ambiant Takeover single?


First part:


/7777//777//////7777/7

.....

and then:

Date: Thu, 6 Mar 2003 23:29:58 -0800
From: Scott Nelson
Subject: t/tubes/white_punks_on_dope.tab

Group: The Tubes

Song: White Punks on Dope

Tabbed by: Scott Nelson

This is just the basic structure of the song as best I can tell through
all the synthesizer stuff. Since I don't know how to notate timing in
tab, you'll need to listen to the song to get the timing down. Oh, yeah.
This is all my own work, so I am sure there are some mistakes. Oh, well.
I gave up attaining perfection in a previous life.

Intro

A A

----------------

----------------

----2-------2--- 2x's

----2-------2---

----0---0---0---

----------------

A A

------------------------

------------------------

--2--2------------------ 5x's

--2--2-----2--5--2--4--2

--0--0--4--------------

------------------------

 

F F F F D D D D C C C C

----1----1----1----1----5----5----5----5----3----3----3----3----

----1----1----1----1----7----7----7----7----5----5----5----5----

----2----2----2----2----7----7----7----7----5----5----5----5----

----3----3----3----3----7----7----7----7----5----5----5----5----

----3----3----3----3----5----5----5----5----3----3----3----3----

----1----1----1----1--------------------------------------------

E E E E A

-----------------------------------------------------

--------------------------------------------------2--

--------------------------------------------------2--

--2--2--------------------2--2--------------------2--

--2--2-----2--5--2--4--2--2--2-----2--5--2--4--2--0--

--0--0--4-----------------0--0--4--------------------

A A A C C C E E E G D

------------------------------------

------------------------------8-----

---2--2--2--5--5--5--9--9--9--7--7--

---2--2--2--5--5--5--9--9--9--5--7--

---0--0--0--3--3--3--7--7--7-----5--

------------------------------------

D D# F D# D

"Teenage had a race for the night time"

"Spent ..."

"Wasted..."

"Getting loose..."

Then the intro part repeats from the 5x's

with:

 

"We're White Punks on Dope
Title: Re: Melvins Tabs
Post by: Mechanical_Bride on September 03, 2007, 12:00:21 PM
I fourth the movement for a Civilized Worm tab.
Title: Re: Melvins Tabs
Post by: mopafeena on September 04, 2007, 12:27:59 AM
I fourth the movement for a Civilized Worm tab.
I thought someone already did one. Maybe i imagined it.
Title: Re: Melvins Tabs
Post by: bathroom creep on September 08, 2007, 02:11:15 PM
Actually someone already posted a Civilized Worm tab but it was pretty hard to read.
I'm trying hard to figure it out myself but still I'm not happy with it.
Title: Re: Melvins Tabs
Post by: embah on September 22, 2007, 03:41:48 PM
Can someone tab The talking horse and You've never been right?
Title: Re: Melvins Tabs
Post by: a bag of holes on September 27, 2007, 02:02:14 PM
can anyone tab the hawk plz?
Title: Re: Melvins Tabs
Post by: Metalhead Cow on September 30, 2007, 03:05:53 PM
Actually someone already posted a Civilized Worm tab but it was pretty hard to read.
I'm trying hard to figure it out myself but still I'm not happy with it.

Yeah, that was me who posted it, and yeah it was pretty hard to read. I think it was my first attempt at writing a tab.
Title: Re: Melvins Tabs
Post by: bathroom creep on September 30, 2007, 03:15:58 PM
I guess if I tried to post a tab it would look the same.
Maybe you could try and post it again cause I'd like to see your version of civilized worm.
I'm too stupid to tab it out properly.
Title: Re: Melvins Tabs
Post by: lazybones on November 02, 2007, 11:05:41 PM

REVOLVE SOLVED

Don't tune drop-D.  Tune your whole guitar one step down and play regular power chords.  It sounds way better than the thumpy drop-d bar chord IMO.



lazybones
Title: Re: Melvins Tabs
Post by: Dead Cowboy on November 04, 2007, 10:07:01 PM
He plays in dropped d. I seen it meself.
Title: Re: Melvins Tabs
Post by: brian on November 22, 2007, 12:12:26 AM
Feel free to post tabs to the melvins wiki
http://www.themelvins.net/wiki/index.php?title=Category:Tablature
Title: Re: Melvins Tabs
Post by: w a s s a k a on November 26, 2007, 12:59:47 AM
i know this may be considered off topic to some , but id like to see some big business tabs, and since jared and coady are part of the melvins, i dont really find it to be that off topic.
Title: Re: Melvins Tabs
Post by: Alex- on November 26, 2007, 07:27:11 AM
My guitar teacher and me figured White Pizzaz out (not 100% correct and stuff). I think I can post that if you want, oh and on ultimate guitar theres a version of one of their tour EP's; Be Stiff
Title: Re: Melvins Tabs
Post by: TJP on November 26, 2007, 09:59:26 AM
i know this may be considered off topic to some , but id like to see some big business tabs, and since jared and coady are part of the melvins, i dont really find it to be that off topic.
Cant you just figure them out yourself? im sure its not that hard
Title: Re: Melvins Tabs
Post by: w a s s a k a on November 26, 2007, 11:23:00 PM
some of them are, and seeing them live confirmed that, i got the pleasure of standing right in front of jared for BB's set and the melvins set, and i would very much appreciate the tab to WP
Title: Re: Melvins Tabs
Post by: Alex- on November 27, 2007, 09:49:44 AM
These are the parts I have now of White Pizzas

|-------------------------------------------------------------------------------------------------
|-------------3-1-0-----------------3-1-0----------------3-1-0--------------3-1-0------
|--33333------------1--33333--------3-----11111---------3--11111---------1---
|-------------------------------------------------------------------------------------------------
      



|--------------------------------------------------------------------------------------------------
|--------------------------------------------------------------------0-11111---0-------------
|--3---------------------3--1-------------------3-1------ 1-3--------------------3----------
|------1--4--33333--------1--4---11111-------1-4-------------------------------------



|-------------------------------------
|----------------------3--1---0----
|--1-------------(1)----------------
|-----(1)--(4)---------------------



|---------------------------------------
|------------3--1-0-1----0---------
|--11111-------------3-----3--1--
|---------------------------------------


(play softly)
Title: Re: Melvins Tabs
Post by: w a s s a k a on December 02, 2007, 02:34:52 AM
thanks!!!
Title: Re: Melvins Tabs
Post by: clergyman on January 04, 2008, 02:39:10 PM
anyone ever tab out the stuff off Dale's solo album?

I'm trying to figure out Hurter but I think I got some of it wrong...plus I'm a bass player, and an awful guitarist.
Title: Re: Melvins Tabs
Post by: bathroom creep on January 04, 2008, 04:47:23 PM
Yeah, I've been trying to tab it out a short while ago but I wasn't eager enough to finish it. I think I'll give it
another shot and if it sounds all right, I'll post my version.  Hurter is a really great song.
Title: Re: Melvins Tabs
Post by: bathroom creep on January 07, 2008, 05:20:50 PM
"Hurter"  -   Dale Crover EP

drop d

Intro
  e--------------------------------------------------------------------------------
 b--------------------------------------------------------------------------------
 g--------------------------------------------------------------------------------
 d--7---7---7-0--7---7-0--9--9\---0--3--0---4-------------------------------------  x3
 a--5---5---5-0--7---7-0--9--9\---0--3--0---2-------------------------------------
 d--5---5---5-0--7---7-0--9--9\---0--3--0---2-------------------------------------



  e--------------------------------------------------------------------------------
 b--------------------------------------------------------------------------------
 g--------------------------------------------------------------------------------
 d--7---7---7-0--7---7-0--9-------------------------------------------------------                   
 a--5---5---5-0--7---7-0--9-------------------------------------------------------
 d--5---5---5-0--7---7-0--9-------------------------------------------------------


riff 1
  e--------------------------------------------------------------------------------
 b--------------------------------------------------------------------------------
 g--4--4--4-4-4----4---4-----2--2--2-2--------------------------------------------
 d--2--2--2-2-2p0--0---0-----2--2--2-2-2h3--3-------------------------------------  x2
 a---------------------------0--0--0-0-0----0-------------------------------------
 d--------------------------------------------------------------------------------


riff 2
  e--------------------------------------------------------------------------------
 b--------------------------------------------------------------------------------
 g------------------------2--2--2-2-2---------------------------------------------
 d--2--2--2-2-2--0--0-----2--2--2-2-2--3--3----3----------------------------------  x2
 a--2--2--2-2-2--2--2-----0--0--0-0-0--3--3----3----------------------------------
 d--2--2--2-2-2--0--0------------------3--3----3----------------------------------


PM
  e---------------------------------------------------------------------------------
 b---------------------------------------------------------------------------------
 g---------------------------------------------------------------------------------
 d--3-3-3-3-3-3-3-3-3-3-3-3-3-3-3--------------------------------------------------
 a--3-3-3-3-3-3-3-3-3-3-3-3-3-3-3--------------------------------------------------
 d--3-3-3-3-3-3-3-3-3-3-3-3-3-3-3--------------------------------------------------
    . . . . . . . . . . . . . . .


riff 3
  e---------------------------------------------------------------------------------
 b---------------------------------------------------------------------------------
 g---------------------------------------------------------------------------------
 d--3----3-3-3-3/5--5/7--7----0--2-------------------------------------------------
 a---------------------------------------------------------------------------------  x2
 d---------------------------------------------------------------------------------


after that only bass  x1
bass with slight guitar  x4  (just play riff 3 on the low d string... quietly)

PM
  e---------------------------------------------------------------------------------
 b---------------------------------------------------------------------------------
 g---------------------------------------------------------------------------------
 d--2-2-2-2-2-2-2-2-2-2-2-2-2-2-2--------------------------------------------------
 a--2-2-2-2-2-2-2-2-2-2-2-2-2-2-2--------------------------------------------------
 d--2-2-2-2-2-2-2-2-2-2-2-2-2-2-2--------------------------------------------------
    . . . . . . . . . . . . . . .


riff 2
  e--------------------------------------------------------------------------------
 b--------------------------------------------------------------------------------
 g------------------------2--2--2-2-2---------------------------------------------
 d--2--2--2-2-2--0--0-----2--2--2-2-2--3--3----3----------------------------------  x4
 a--2--2--2-2-2--2--2-----0--0--0-0-0--3--3----3----------------------------------
 d--2--2--2-2-2--0--0------------------3--3----3----------------------------------



PM
  e---------------------------------------------------------------------------------
 b---------------------------------------------------------------------------------
 g---------------------------------------------------------------------------------
 d--3-3-3-3-3-3-3-3-3-3-3-3-3-3-3--------------------------------------------------
 a--3-3-3-3-3-3-3-3-3-3-3-3-3-3-3--------------------------------------------------
 d--3-3-3-3-3-3-3-3-3-3-3-3-3-3-3--------------------------------------------------
    . . . . . . . . . . . . . . .



alternate riff 3
  e---------------------------------------------------------------------------------
 b---------------------------------------------------------------------------------
 g---------------------------------------------------------------------------------
 d--5----3-3-3-3/5--5/7--7----0--2-------------------------------------------------
 a--3----3-3-3-3/5--5/7--7----0--2-------------------------------------------------  x2
 d--3----3-3-3-3/5--5/7--7----0--2-------------------------------------------------
         . . .


only bass  x1
only riff 3  x2
bass with slight alternate riff....for a minute or so......fade out....scream


Okay, that's my attempt.  I think it sounds all right..   And once again I have to say: what a great song.
I'm gonna try to figure out Dead Wipe soon.

If you're looking for bass tabs... well, I'm not a bass player but I'm quite sure the bass lines are pretty much
the same as the guitar.


Title: Re: Melvins Tabs
Post by: Eponymous on January 07, 2008, 05:35:08 PM
Nice!
I added it to the wiki
http://www.themelvins.net/wiki/index.php?title=Hurter

http://www.themelvins.net/wiki/index.php?title=Category:Tablature
Title: Re: Melvins Tabs
Post by: bathroom creep on January 07, 2008, 05:39:01 PM
thanks!
Title: Re: Melvins Tabs
Post by: bathroom creep on January 08, 2008, 11:03:44 AM
"Dead Wipe"   -   Dale Crover EP

Drop D tuning

Intro
  e---------------------------------------------------------------------------------
 b---------------------------------------------------------------------------------
 g--4-4-4-4-4-4-4-4-4-4-5-4-4-4-4--0--4-4-4-4-4-4-4-4-4-4-5-4-4-4-4--0-------------
 d--5-5-5-5-5-5-5-5-5-5-5-5-5-5-5--0--4-4-4-4-4-4-4-4-4-4-4-4-4-4-4--0-------------
 a--------------------------------------------------------------------------------- 
 d---------------------------------------------------------------------------------
    . . . . . . . . . . . . . . .     . . . . . . . . . . . . . . .



  e---------------------------------------------------------------------------------
 b---------------------------------------------------------------------------------
 g--4-4-4-4-4-4-4-4-4-4-5-4-4-4-4--0--4-4-4-4-4-4-4-4--4---------------------------
 d--5-5-5-5-5-5-5-5-5-5-5-5-5-5-5--0--4-4-4-4-4-4-4-4--4---------------------------
 a--------------------------------------------------------------------------------- 
 d---------------------------------------------------------------------------------
    . . . . . . . . . . . . . . .     . . . . . . . .  let ring
                 


  e---------------------------------------------------------------------------------
 b---------------------------------------------------------------------------------
 g---------------------------------------------------------------------------------
 d---------------------------------------------------------------------------------
 a------2--------2---2h3---2--0-------2--------0-----------------------------------  x2
 d--5--------5--------------------4--------4---------------------------------------

   (Intro riff is played at the same time)


Verse
  e---------------------------------------------------------------------------------
 b---------------------------------------------------------------------------------
 g--4-4-4-4-4-4-4-4-4-4-5-4-4-4-4--0--4-4-4-4-4-4-4-4-4-4-5-4-4-4-4--0-------------
 d--5-5-5-5-5-5-5-5-5-5-5-5-5-5-5--0--4-4-4-4-4-4-4-4-4-4-4-4-4-4-4--0-------------
 a---------------------------------------------------------------------------------   x2
 d---------------------------------------------------------------------------------
    . . . . . . . . . . . . . . .     . . . . . . . . . . . . . . .


Pre-Chorus
  e---------------------------------------------------------------------------------
 b---------------------------------------------------------------------------------
 g---------------------------------------------------------------------------------
 d--5-5-5--4-4-4--5-5-5-5-5-5-5-5-5-5--0--4-4--2-2--4-4--2-2--4-2------------------
 a--5-5-5--4-4-4--5-5-5-5-5-5-5-5-5-5--0--4-4--2-2--4-4--2-2--4-2------------------  x2
 d--5-5-5--4-4-4--5-5-5-5-5-5-5-5-5-5--0--4-4--2-2--4-4--2-2--4-2------------------
    . . .  . . .  . . . . . . .


Chorus
  e---------------------------------------------------------------------------------
 b---------------------------------------------------------------------------------
 g--4-4-------4-4-------4-----------------------2----2--2-2--2---------------------
 d--4-4--4-4--4-4--4-4--4-4------------4-4-4----2----2--2-2--2---------------------
 a--2-2--0-0--2-2--0-0--2-0----0-0-0---5-5-5----0----0--0-0--0---------------------  x4
 d-----------------------------0-0-0---0-0-0---------------------------------------
                               . . .



  e---------------------------------------------------------------------------------
 b---------------------------------------------------------------------------------
 g---------------------------------------------------------------------------------
 d--5-5-5-5-5-5-5-5-5-5-5-5-5-5-5--------------------------------------------------
 a--3-3-3-3-3-3-3-3-3-3-3-3-3-3-3--0--2--------------------------------------------
 d---------------------------------------------------------------------------------
    . . . . . . . . . . . . . . .     let ring


Verse
  e---------------------------------------------------------------------------------
 b---------------------------------------------------------------------------------
 g--4-4-4-4-4-4-4-4-4-4-5-4-4-4-4--0--4-4-4-4-4-4-4-4-4-4-5-4-4-4-4--0-------------
 d--5-5-5-5-5-5-5-5-5-5-5-5-5-5-5--0--4-4-4-4-4-4-4-4-4-4-4-4-4-4-4--0-------------
 a---------------------------------------------------------------------------------   x2
 d---------------------------------------------------------------------------------
    . . . . . . . . . . . . . . .     . . . . . . . . . . . . . . .


Pre-Chorus
  e---------------------------------------------------------------------------------
 b---------------------------------------------------------------------------------
 g---------------------------------------------------------------------------------
 d--5-5-5--4-4-4--5-5-5-5-5-5-5-5-5-5--0--4-4--2-2--4-4--2-2--4-2------------------
 a--5-5-5--4-4-4--5-5-5-5-5-5-5-5-5-5--0--4-4--2-2--4-4--2-2--4-2------------------  x2
 d--5-5-5--4-4-4--5-5-5-5-5-5-5-5-5-5--0--4-4--2-2--4-4--2-2--4-2------------------
    . . .  . . .  . . . . . . .


Chorus
  e---------------------------------------------------------------------------------
 b---------------------------------------------------------------------------------
 g--4-4-------4-4-------4-----------------------2----2--2-2--2---------------------
 d--4-4--4-4--4-4--4-4--4-4------------4-4-4----2----2--2-2--2---------------------
 a--2-2--0-0--2-2--0-0--2-0----0-0-0---5-5-5----0----0--0-0--0---------------------  x4
 d-----------------------------0-0-0---0-0-0---------------------------------------
                               . . .


  e---------------------------------------------------------------------------------
 b---------------------------------------------------------------------------------
 g--4-4-------4--------------------------------------------------------------------
 d--4-4--4-4--4-4------------------------------------------------------------------
 a--2-2--0-0--2-0--------2---------------------------------------------------------
 d-----------------5--4--2----4----------------------------------------------------
                              let ring



End

I'm not sure about the chorus, but the rest is okay I guess.
Title: Re: Melvins Tabs
Post by: Eponymous on January 08, 2008, 05:50:37 PM
http://www.themelvins.net/wiki/index.php?title=Dead_Wipe
Title: Re: Melvins Tabs
Post by: bathroom creep on January 09, 2008, 05:10:39 AM
Thanks again for adding it to the wiki, I couldn't do it because I'm not logged in there.
I'm gonna post some more tabs soon,  right now I'm tabbing out Billy Fish. 
Title: Re: Melvins Tabs
Post by: norecess on January 09, 2008, 06:08:55 AM
For how long have you been playing guitar?

You can create an account for the Melvins wiki right here:
http://www.themelvins.net/wiki/index.php?title=Special:Userlogin&type=signup
Title: Re: Melvins Tabs
Post by: bathroom creep on January 09, 2008, 08:19:13 AM
For how long have you been playing guitar?

You can create an account for the Melvins wiki right here:
http://www.themelvins.net/wiki/index.php?title=Special:Userlogin&type=signup

I've been playing for 2 years and 4 months now I guess. 

And yeah I know I could sign up but somehow I din't get around to it until now..
So if I sign up there... can I still post the tabs here?
Title: Re: Melvins Tabs
Post by: norecess on January 09, 2008, 08:29:44 AM
Yeah sure, you can post them here and archive them in the wiki.
Title: Re: Melvins Tabs
Post by: bathroom creep on January 09, 2008, 01:35:43 PM
"Billy Fish"

Drums....

Intro 
  e---------------------------------------------------------------------------------
 b-------------------------------------5--5--x-------------------------------------
 g--9--9-x--8---8-8p7--7--9--7--6------5--5--x--4----------------------------------
 d--7--7-x--7---7-7----7--7--7--7------5--5--x--5------5--4--0---7-----------------
 a--0--0-x--0---0-0----0--0--0--0----------------------5--4--0---7----------------- x2
 e---------------------------------------------------------------------------------



  e---------------------------------------------------------------------------------
 b---------------------------------------------------------------------------------
 g---------------------------------------------------5--5-x--5---5-----------------
 d--7--7-x---7---7--7--7-----------------------------5--5-x--5---5----5--4---7-----
 a--7--7-x---6---6--6--6---5--7--5--4---4--4--4------3--3-x--3---3----5--4---7----- x2
 e--5--5-x---5---5--5--5---5--5--5--5---5--5--5--------------3---3----3--2---5-----



Verse (slightly palm muted)
  e---------------------------------------------------------------------------------
 b---------------------------------------------------------------------------------
 g---------------------------------------------------5--5-x--5---5-----------------
 d--7--7-x---7---7--7--7-----------------------------5--5-x--5---5----5--4---7-----
 a--7--7-x---6---6--6--6---5--7--5--4---4--4--4------3--3-x--3---3----5--4---7----- x2
 e--5--5-x---5---5--5--5---5--5--5--5---5--5--5--------------3---3----3--2---5-----



Verse (non-palm muted)
  e---------------------------------------------------------------------------------
 b---------------------------------------------------------------------------------
 g---------------------------------------------------5--5-x--5---5-----------------
 d--7--7-x---7---7--7--7-----------------------------5--5-x--5---5----5--4---7-----
 a--7--7-x---6---6--6--6---5--7--5--4---4--4--4------3--3-x--3---3----5--4---7----- x2
 e--5--5-x---5---5--5--5---5--5--5--5---5--5--5--------------3---3----3--2---5-----



  e---------------------------------------------------------------------------------
 b---------------------------------------------------------------------------------
 g--5--5-5-5---3--3-3-3-3-3-3----3--2----------------------------------------------
 d--5--5-5-5---3--3-3-3-3-3-3----3--2----------------------------------------------
 a--3--3-3-3---1--1-1-1-1-1-1----1--0---2-2--2-2--2-2------------------------------
 e--------------------------------------0-0--0-0--0-0------------------------------
                                        . .  . .  . .

Drums...

Intro Riff 
  e---------------------------------------------------------------------------------
 b-------------------------------------5--5--x-------------------------------------
 g--9--9-x--8---8-8p7--7--9--7--6------5--5--x--4----------------------------------
 d--7--7-x--7---7-7----7--7--7--7------5--5--x--5------5--4--0---7-----------------
 a--0--0-x--0---0-0----0--0--0--0----------------------5--4--0---7----------------- x2
 e---------------------------------------------------------------------------------



Verse (non-palm muted)
  e---------------------------------------------------------------------------------
 b---------------------------------------------------------------------------------
 g---------------------------------------------------5--5-x--5---5-----------------
 d--7--7-x---7---7--7--7-----------------------------5--5-x--5---5----5--4---7-----
 a--7--7-x---6---6--6--6---5--7--5--4---4--4--4------3--3-x--3---3----5--4---7----- x2
 e--5--5-x---5---5--5--5---5--5--5--5---5--5--5--------------3---3----3--2---5-----


Break
  e---------------------------------------------------------------------------------
 b---------------------------------------------------------------------------------
 g--5-5-5-5-5-------------8-8-8-8-8------------------------------------------------
 d--5-5-5-5-5--5-5-5-5-5--8-8-8-8-8--8-8-8-8-8-------------------------------------
 a--3-3-3-3-3--5-5-5-5-5--6-6-6-6-6--8-8-8-8-8-------------------------------------
 e-------------3-3-3-3-3-------------6-6-6-6-6-------------------------------------


  e---------------------------------------------------------------------------------
 b---------------------------------------------------------------------------------
 g--2-2-2-2-2--------------9-9--9-9--9-9-------------------------------------------
 d--2-2-2-2-2--2-2-2-2-2---7-7--7-7--7-7-------------------------------------------
 a--0-0-0-0-0--2-2-2-2-2---0-0--0-0--0-0-------------------------------------------
 e-------------0-0-0-0-0-----------------------------------------------------------


Outro Riff
  e---------------------------------------------------------------------------------
 b---------------------------------------------------------------------------------
 g--2-2-2-2-2--2-2-2-2-2---5----------------2-----5--------------------------------
 d--2-2-2-2-2--2-2-2-2-2---5----3-3-3-3-3---2--5--5--------------------------------
 a--0-0-0-0-0--0-0-0-0-0---3----3-3-3-3-3---0--5--3--------------------------------
 e------------------------------1-1-1-1-1------3-----------------------------------

                                                                                                                                                                                                   x4
  e---------------------------------------------------------------------------------
 b---------------------------------------------------------------------------------
 g--5/8-8-8-8-8-8--3----3/6-6-----5-----2------------------------------------------
 d--5/8-8-8-8-8-8--3----3/6-6--5--5--5--2------------------------------------------
 a--3/6-6-6-6-6-6--1----1/4-4--5--3--5--0------------------------------------------
 e-----------------------------3-----3---------------------------------------------
                   ~


End

  e---------------------------------------------------------------------------------
 b---------------------------------------------------------------------------------
 g--2-2-2-2-2--2-2-2-2-2---2-2-2-2-2--2-2-2-2-2---2-2-2-2-2--2-2-2-2-2-------------
 d--2-2-2-2-2--2-2-2-2-2---2-2-2-2-2--2-2-2-2-2---2-2-2-2-2--2-2-2-2-2-------------
 a--0-0-0-0-0--0-0-0-0-0---0-0-0-0-0--0-0-0-0-0---0-0-0-0-0--0-0-0-0-0------------- 
 e---------------------------------------------------------------------------------




Okay that's it.  To be honest, I checked out the wiki and have an account now
but I have no clue how to post tabs and lyrics etc... no clue!
Could someone explain how it works?

Cheers!
Title: Re: Melvins Tabs
Post by: Eponymous on January 09, 2008, 05:34:05 PM
Okay that's it.  To be honest, I checked out the wiki and have an account now
but I have no clue how to post tabs and lyrics etc... no clue!
Could someone explain how it works?

Cheers!

Brian wrote a little how-to at the top here.
http://www.themelvins.net/wiki/index.php?title=Category:Tablature

You can preview everything before you save it.

Also, look at other pages, click edit and see how they're done.

Let me know if you get into trouble.
Title: Re: Melvins Tabs
Post by: bathroom creep on January 10, 2008, 10:17:40 AM
Okay, I checked that out and I think I know how to add tabs to songs that are already
on the wiki (songs with lyrics). But I don't know how to add new songs to the category
"tablature", for example Billy Fish. I tried to edit it but I could only edit the text at the top
of the tablature page, and not the A-Z song list. How can I add Billy Fish to the "B" section?

By the way, at the moment I'm tabbing out the rest of Dales EP, Annum, Vast Filthy Prison
and Suicide in Progress. Has anyone tabbed them out yet? I couldn't find them here.
Title: Re: Melvins Tabs
Post by: norecess on January 10, 2008, 10:39:33 AM
If you read http://www.themelvins.net/wiki/index.php?title=Category:Tablature it says 'If you post new tabs to a song make sure you put the category tag in otherwise they won't be added to this page, add the tag by putting [[Category: Tablature]] at the bottom of the page'. I don't mean to sound like a smart ass, I just found out about it and tried it and it seems to work. I created a new page, Billy Fish, and added the tablature category tag, and it now appears on the tablature page, under the 'b' as it should. I'll let you add the tabs, after all, they're your work ;)

By the way, thanks for contributing to the tabs section! I started to tab the bass  part of Anaconda a few weeks ago but got sick and tired of all the work, and never finished it. It's quite easy to play but there are some small subtle differences that are difficult to hear, and I should say I'm a beginner, but better late than never.
Title: Re: Melvins Tabs
Post by: bathroom creep on January 10, 2008, 11:43:49 AM
Wow, I did it!  http://www.themelvins.net/wiki/index.php?title=Billy_Fish
Thanks for creating that page... :D 
Now can you tell me why it looks different than the Hurter (http://www.themelvins.net/wiki/index.php?title=Hurter) tab? (and any other tab on the wiki?) 

I knew I had to put that [[Category: Tablature]] thing at the bottom of the page
but I still don't know how to create a page like that... What exactly did you do?
Boy, I feel stupid.  Need instructions.

By the way, thanks for contributing to the tabs section! I started to tab the bass  part of Anaconda a few weeks ago but got sick and tired of all the work, and never finished it. It's quite easy to play but there are some small subtle differences that are difficult to hear, and I should say I'm a beginner, but better late than never.
Yeah no problem, I think it's fun and I just wanted to share my ideas..
When I tabbed out Billy Fish I almost went crazy because there was one bit that I just couldn't figure out!
Title: Re: Melvins Tabs
Post by: bathroom creep on January 10, 2008, 04:47:51 PM
All right, I finally found out how it works.  It's not even that hard.
Now that I know all about the wiki I'm gonna try to post some more
tabs tomorrow.

By the way I was wondering if there has been an Altamont tabs thread yet.. . .?
I'm tabbing a lot right now so I thought I could post some sweet Altamont tabs.

Title: Re: Melvins Tabs
Post by: samo on January 11, 2008, 08:00:47 PM
I was bored so I decided to jot down a tab, will update wiki after posting.  Let me know if this is any decent!  Thanks


Song: With Yo Heart Not Yo Hands
Artist: Melvins
Tabbed By: Jamie
Email: xxsamoxx@gmail.com
Notes: Listen to the song to get the strumming patterns

Intro
e|--------------|
B|--------------|
G|--------------|
D|-2------------|
A|-2-feedback---|
E|-0------------|



Chorus
e|---------------------------|
B|---------------------------|
G|--9-------9----------------|
D|--9---8---9---8--7--5--2---|
A|--7---8---7---8--7--5--2---|
E|------6-------6--5--3--0---|



Chours2
e|--------------------------------|
B|--------------------------------|
G|--9/10\9-------9----------------|
D|--9/10\9---8---9---8--7--5--2---|
A|--7/8-\7---8---7---8--7--5--2---|
E|-----------6-------6--5--3--0---|



Verse
e|----------------------------------------|
B|----------------------------------------|
G|----------------------------------------|
D|-------------5--------------------------|
A|----7-7-5-7-----7-7-5-7-8-----------5h7-|
E|--------------------------7-8-7-5h7-----|

                               D|-----5h7-|
    Play this instead 2cd time A|-5h7-----|
                               E|---------|



Bridge
e|--------------------------|
B|--------------------------|
G|--------------------------|
D|--------------------------|
A|----3-2---1-------3p2-----|
E|--3-----2---1-3-2-----3p2-|



Outro
e|----------------|
B|----------------|
G|----------------|
D|---8--7--5--2---|
A|---8--7--5--2---|
E|---6--5--3--0---|
Title: Re: Melvins Tabs
Post by: bathroom creep on January 12, 2008, 05:40:29 PM
"Suicide in Progress"

Intro
  e---------------------------------------------------------------------------------
 b---------------------------------------------------------------------------------
 g--2--2--2--2-2-2----------------2--2--2--2-2-2-----------------------------------
 d--2--2--2--2-2-2----------------2--2--2--2-2-2-----------------------------------
 a--0--0--0--0-0-0---3p0--0-------0--0--0--0-0-0---3p0--0---------0----------------
 e---------------------------3b-----------------------------3b---------3b----------



  e---------------------------------------------------------------------------------
 b---------------------------------------------------------------------------------
 g--2--2--2--2-2-2-----------------------------------------------------------------
 d--2--2--2--2-2-2-----------------------------------------------------------------
 a--0--0--0--0-0-0---3p0--0--------0---------0-------------------------------------
 e---------------------------3b--------3b--------3b--------------------------------


Riff 1
  e---------------------------------------------------------------------------------
 b---------------------------------------------------------------------------------
 g---------------------------------------------------------------------------------
 d---------------------------------------------------------------------------------
 a--2-2------2-2----4p2--2-5p2--2-4p2------2-2----4p2--2-5p2--2-4p2----------------
 e--0-0--3b--0-0-----------------------3b--0-0------------------------3--0--3--0---
    . .                                                               .  .  .  .

                                                                                                                                                                                                    }  x5
  e---------------------------------------------------------------------------------
 b---------------------------------------------------------------------------------
 g---------------------------------------------------------------------------------
 d---------------------------------------------------------------------------------
 a--4p2--2-5p2-2--4-2-----2--4-----------------------------------------------------
 e---------------------3-----------------------------------------------------------



Short Break

  e---------------------------------------------------------------------------------
 b---------------------------------------------------------------------------------
 g--9-9-9-9--9-9-9-9--9-9-9-9--9-9-9-9--9-9-9-9--9-9-9-9--9-9-9-9------------------
 d--9-9-9-9--9-9-9-9--9-9-9-9--9-9-9-9--9-9-9-9--9-9-9-9--9-9-9-9------------------
 a--7-7-7-7--7-7-7-7--7-7-7-7--7-7-7-7--7-7-7-7--7-7-7-7--7-7-7-7------------------
 e---------------------------------------------------------------------------------


Riff 1
  e---------------------------------------------------------------------------------
 b---------------------------------------------------------------------------------
 g---------------------------------------------------------------------------------
 d---------------------------------------------------------------------------------
 a--2-2------2-2----4p2--2-5p2--2-4p2------2-2----4p2--2-5p2--2-4p2---------------- 
 e--0-0--3b--0-0-----------------------3b--0-0------------------------3--0--3--0---
    . .            |repeat twice from here                            .  .  .  .


  e---------------------------------------------------------------------------------
 b---------------------------------------------------------------------------------
 g---------------------------------------------------------------------------------
 d---------------------------------------------------------------------------------
 a--4p2--2-5p2-2--4-2-----2--4-----------------------------------------------------  x1
 e---------------------3-----------------------------------------------------------


Riff 2
  e---------------------------------------------------------------------------------
 b---------------------------------------------------------------------------------
 g---------------------------------------------------------------------------------
 d---------------------2-----------------------------------------------------------
 a--2--2-2-------------2----7-7-7-7-7-7--------------------------------------------  x3
 e--0--0-0---3----5-6--0-----------------6-----3-5-6--5h6p5--3h5p3-----------------


  e---------------------------------------------------------------------------------
 b---------------------------------------------------------------------------------
 g---------------------------------------------------------------------------------
 d---------------7---2-------------------------------------------------------------
 a---------------7---2-------------------------------------------------------------
 e--0--0-0--3----5---0-------------------------------------------------------------



Second Part
  e---------------------------------------------------------------------------------
 b---------------------------------------------------------------------------------
 g--2-2--2--2---2-2---------------2-2--2--2---2-2----------------------------------
 d--2-2--4--2---2-2---------------2-2--4--2---2-2----------------------------------
 a--0-0--0--0---0-0--3p0-0--------0-0--0--0---0-0--3p0-0-------0-------------------
 e--------------------------3b----------------------------3b-------3b--------------
                . .                           . .


  e---------------------------------------------------------------------------------
 b---------------------------------------------------------------------------------
 g--2-2--2--2---2-2----------------------------------------------------------------
 d--2-2--4--2---2-2----------------------------------------------------------------
 a--0-0--0--0---0-0--3p0-0-------0--------0----------------------------------------
 e--------------------------3b-------3b--------3b----------------------------------
                . .

Verse
  e---------------------------------------------------------------------------------
 b---------------------------------------------------------------------------------
 g---------------------------------------------------------------------------------
 d---------------------------------------------------------------------------------
 a--2--2-2--5---5/7--7-7--8--2---8-8-8-8-8--5---5/7--7-7--2--2-2------------------- x5 
 e--0--0-0--3---3/5--5-5--6--0---6-6-6-6-6--3---3/5--5-5--0--0-0---0-0-0-0-3b------

PM

Riff 3
  e---------------------------------------------------------------------------------
 b---------------------------------------------------------------------------------
 g--9-9-9-9-9--9----7-----4/5-5-5-5--5----2-2--4-----------------------------------
 d--9-9-9-9-9--9----7-----4/5-5-5-5--5----2-2--4-----------------------------------
 a--7-7-7-7-7--7----5--0--2/3-3-3-3--3----0-0--2-----------------------------------
 e---------------------------------------------------------------------------------


Verse  x2
Riff 3 x2


End
d--2----
a--2----
e--0----



That's my attempt,  cheers!
Title: Re: Melvins Tabs
Post by: Alex- on January 15, 2008, 07:26:59 AM
Thanks! sounds perfect
Title: Re: Melvins Tabs
Post by: bathroom creep on January 15, 2008, 09:48:38 AM
Cool, thanks for letting me now.
Title: Re: Melvins Tabs
Post by: bathroom creep on January 16, 2008, 04:01:01 PM
"Respite"   -   Dale Crover EP


Intro
 e---------------------------------------------------------------------------------
 b---------------------------------------------------------------------------------
 g---------------------------------------------------------------------------------
 d--3--3--3--3--3-3--2-3--3--3--3--3--3-3------------------------------------------
 a---------------------------------------------------------------------------------
 e---------------------------------------------------------------------------------


 e---------------------------------------------------------------------------------
 b---------------------------------------------------------------------------------
 g--4------------------------------------------------------------------------------
 d------2------------2-2-2---------------------------------------------------------
 a------2----2---2---3-3-3--------------------------------------------------------- x2
 e-----------0---0---0-0-0---------------------------------------------------------



drums fade in...
 e---------------------------------------------------------------------------------
 b---------------------------------------------------------------------------------
 g---------------------------------------------------------------------------------
 d--2-3--3--3--3--3-3--2-3--3--3--3--3--3-3----------------------------------------
 a---------------------------------------------------------------------------------
 e---------------------------------------------------------------------------------


 e---------------------------------------------------------------------------------
 b---------------------------------------------------------------------------------
 g--4------------------------------------------------------------------------------
 d------2------------2-2-2---------------------------------------------------------
 a------2----2---2---3-3-3--------------------------------------------------------- x2
 e-----------0---0---0-0-0---------------------------------------------------------



 e---------------------------------------------------------------------------------
 b---------------------------------------------------------------------------------
 g---------------------------------------------------------------------------------
 d--2-3--3--3--3--3-3--2-3--3b--3b--3b--3b--3-3------------------------------------
 a---------------------------------------------------------------------------------
 e---------------------------------------------------------------------------------


 e---------------------------------------------------------------------------------
 b---------------------------------------------------------------------------------
 g--4------------------------------------------------------------------------------
 d------2------------2-2-2---------------------------------------------------------
 a------2----2---2---3-3-3--------------------------------------------------------- x4
 e-----------0---0---0-0-0---------------------------------------------------------



 e---------------------------------------------------------------------------------
 b---------------------------------------------------------------------------------
 g---------------------------------------------------------------------------------
 d--4--4-----4---------------------------------------------------------------------
 a--2--2--3--2---3-3/5-5-5-5------------------------------------------------------- x4
 e--0--0--0--0---------------------------------------------------------------------



Verse
 e---------------------------------------------------------------------------------
 b---------------------------------------------------------------------------------
 g---------------------------------------------------------------------------------
 d--3---3--3--3-3--3---3-----3---3--3--3-3-----------------------------------------
 a--3---3--3--3-3--3---3-----3---3--3--3-3-----------------------------------------
 e--1---1--1--1-1--1---1--0--1---1--1--1-1-----------------------------------------


 e---------------------------------------------------------------------------------
 b---------------------------------------------------------------------------------
 g---------------------------------------------------------------------------------
 d------------2--2--2-2-2----------------------------------------------------------
 a-------7\---2--2--3-3-3---------------------------------------------------------- x2
 e--2/7-------0--0--0-0-0----------------------------------------------------------


Verse
 e---------------------------------------------------------------------------------
 b---------------------------------------------------------------------------------
 g---------------------------------------------------------------------------------
 d--3---3--3--3-3--3---3-----3---3--3--3-3-----------------------------------------
 a--3---3--3--3-3--3---3-----3---3--3--3-3-----------------------------------------
 e--1---1--1--1-1--1---1--0--1---1--1--1-1-----------------------------------------


 e---------------------------------------------------------------------------------
 b---------------------------------------------------------------------------------
 g---------------------------------------------------------------------------------
 d------------2--2--2-2-2----------------------------------------------------------
 a-------7\---2--2--3-3-3---------------------------------------------------------- x2
 e--2/7-------0--0--0-0-0----------------------------------------------------------


Verse x2

 e---------------------------------------------------------------------------------
 b---------------------------------------------------------------------------------
 g---------------------------------------------------------------------------------
 d--5--5--5-5-5/7-7--7/9-9---------------------------------------------------------
 a--5--5--5-5-5/7-7--7/9-9---------------------------------------------------------
 e--3--3--3-3-3/5-5--5/7-7---------------------------------------------------------


Outro
 e---------------------------------------------------------------------------------
 b---------------------------------------------------------------------------------
 g---------------------------------------------------------------------------------
 d--4--4----4-4-4-4--4--4----4-4-4-4--4--4----4-4-4-4--4--4----4-4-4-4-------------
 a--2--2----2-2-2-2--2--2----2-2-2-2--2--2----2-2-2-2--2--2----2-2-2-2-------------
 e--0--0----3-3-3-3--0--0----3-3-3-3--0--0----3-3-3-3--0--0----3-3-3-3-------------

play a couple of times


End
 e---------------------------------------------------------------------------------
 b---------------------------------------------------------------------------------
 g---------------------------------------------------------------------------------
 d--4---4----4----------4----------------------------------------------------------
 a--2---2----2---------------2-----------------------------------------------------
 e--0---2----3---------------------3-----------------------------------------------



Title: Re: Melvins Tabs
Post by: TommyHC on January 16, 2008, 04:09:26 PM
thank you for tabbing out the Dale Crover Ep
I was waiting for respite
Title: Re: Melvins Tabs
Post by: bathroom creep on January 16, 2008, 04:16:24 PM
No problem!  just let me know if it sounds all right.
Title: Re: Melvins Tabs
Post by: bathroom creep on January 29, 2008, 03:27:31 PM
"A Vast Filthy Prison"   -  (A) Senile Animal


Intro   x2
 e---------------------------------------------------------------------------------
 b---------------------------------------------------------------------------------
 g---------------------------------------------------------------------------------
 d--1---1-1h2---2------------------------------------------------------------------
 a--2---2-2-----2------------------------------------------------------------------ 
 e--0---0-0-----0------------------------------------------------------------------



 e---------------------------------------------------------------------------------
 b---------------------------------------------------------------------------------
 g---------------------------------------------------------------------------------
 d--1---1-1h2---2------------------------------------------------------------------
 a--2---2-2-----2------------------------------------------------------------------
 e--0---0-0-----0------------------------------------------------------------------



 e---------------------------------------------------------------------------------
 b---------------------------------------------------------------------------------
 g---------------------------------------------------------------------------------
 d--5---5-5--7---2-----------------------------------------------------------------
 a--5---5-5--7---2-----------------------------------------------------------------
 e--3---3-3--5---0-----------------------------------------------------------------



 e---------------------------------------------------------------------------------
 b---------------------------------------------------------------------------------
 g---------------------------------------------------------------------------------
 d--5---5-5--7---2-----------------------------------------------------------------
 a--5---5-5--7---2-----------------------------------------------------------------
 e--3---3-3--5---0-----------------------------------------------------------------



Verse  (like intro, with lyrics)
 e---------------------------------------------------------------------------------
 b---------------------------------------------------------------------------------
 g---------------------------------------------------------------------------------
 d--1---1-1h2---2------------------------------------------------------------------
 a--2---2-2-----2------------------------------------------------------------------ 
 e--0---0-0-----0------------------------------------------------------------------

  take care of my princess....

 e---------------------------------------------------------------------------------
 b---------------------------------------------------------------------------------
 g---------------------------------------------------------------------------------
 d--1---1-1h2---2------------------------------------------------------------------
 a--2---2-2-----2------------------------------------------------------------------
 e--0---0-0-----0------------------------------------------------------------------

   take her cuz we live alone....

 e---------------------------------------------------------------------------------
 b---------------------------------------------------------------------------------
 g---------------------------------------------------------------------------------
 d--5---5-5--7---2-----------------------------------------------------------------
 a--5---5-5--7---2-----------------------------------------------------------------
 e--3---3-3--5---0-----------------------------------------------------------------

     if you weren't so simple....

 e---------------------------------------------------------------------------------
 b---------------------------------------------------------------------------------
 g---------------------------------------------------------------------------------
 d--5---5-5--7---2-----------------------------------------------------------------
 a--5---5-5--7---2-----------------------------------------------------------------
 e--3---3-3--5---0-----------------------------------------------------------------

   i would never come alone...

Verse  x2


Riff 1
 e---------------------------------------------------------------------------------
 b---------------------------------------------------------------------------------
 g---------------------------------------------------------------------------------
 d--9-9-9-9-9-9-9---7--4-4--4/5--5-5-5-5-5-5-5--2----------------------------------
 a--7-7-7-7-7-7-7---5--2-2--2/3--3-3-3-3-3-3-3--0---2-2------2-2-------------------
 e--------------------------------------------------0-0------0-0-------------------
    . . . . . .                  . . . . . .                 . .


 e---------------------------------------------------------------------------------
 b---------------------------------------------------------------------------------
 g---------------------------------------------------------------------------------
 d--9-9-9-9-9-9\4--4-4--4-4-4--2---------------------------------------------------
 a--7-7-7-7-7-7\2--2-2--2-2-2--0---2-----------------------------------------------
 e---------------------------------0-----------------------------------------------
    . . . . . .


Intro  x1

play at the same time:


 e--------3------------------------------------------------------------------------
 b-----3-----5---------------------------------------------------------------------
 g--4------------------------------------------------------------------------------
 d---------------------------------------------------------------------------------
 a---------------------------------------------------------------------------------
 e---------------------------------------------------------------------------------



 e--------3------------------------------------------------------------------------
 b-----3-----5---------------------------------------------------------------------
 g--4------------------------------------------------------------------------------
 d---------------------------------------------------------------------------------
 a---------------------------------------------------------------------------------
 e---------------------------------------------------------------------------------



 e---------------------------------------------------------------------------------
 b--5b---5b-5b--5r--5--------------------------------------------------------------
 g---------------------------------------------------------------------------------
 d---------------------------------------------------------------------------------
 a---------------------------------------------------------------------------------
 e---------------------------------------------------------------------------------



 e---------------------------------------------------------------------------------
 b--5b---5b-5b--5r--5--------------------------------------------------------------
 g---------------------------------------------------------------------------------
 d---------------------------------------------------------------------------------
 a---------------------------------------------------------------------------------
 e---------------------------------------------------------------------------------



Verse x1



Riff 1
 e---------------------------------------------------------------------------------
 b---------------------------------------------------------------------------------
 g---------------------------------------------------------------------------------
 d--9-9-9-9-9-9-9---7--4-4--4/5--5-5-5-5-5-5-5--2----------------------------------
 a--7-7-7-7-7-7-7---5--2-2--2/3--3-3-3-3-3-3-3--0---2-2------2-2-------------------
 e--------------------------------------------------0-0------0-0-------------------
    . . . . . .                  . . . . . .                 . .


 e---------------------------------------------------------------------------------
 b---------------------------------------------------------------------------------
 g---------------------------------------------------------------------------------
 d--9-9-9-9-9-9\4--4-4--4-4-4--2---------------------------------------------------
 a--7-7-7-7-7-7\2--2-2--2-2-2--0---2-----------------------------------------------
 e---------------------------------0-----------------------------------------------
    . . . . . .



Riff 1 
 e---------------------------------------------------------------------------------
 b---------------------------------------------------------------------------------
 g---------------------------------------------------------------------------------
 d--9-9-9-9-9-9-9---7--4-4--4/5--5-5-5-5-5-5-5--2----------------------------------
 a--7-7-7-7-7-7-7---5--2-2--2/3--3-3-3-3-3-3-3--0---2-2------2-2-------------------
 e--------------------------------------------------0-0------0-0-------------------
    . . . . . .                  . . . . . .                 . .


 e---------------------------------------------------------------------------------
 b---------------------------------------------------------------------------------
 g---------------------------------------------------------------------------------
 d--9-9-9-9-9-9\4--4-4--4-4-4----9--7---10-9---------------------------------------
 a--7-7-7-7-7-7\2--2-2--2-2-2----7--5---8--7---------------------------------------
 e---------------------------------------------------------------------------------
    . . . . . .



Outro
 e---------------------------------------------------------------------------------
 b---------------------------------------------------------------------------------
 g---------------------------------------------------------------------------------
 d---------------------------------------------------------------------------------
 a--2-2--2-2--2-2----2-2--2-2--2-2----2-2--2-2--2-2--------------------------------
 e--0-0--0-0--0-0----0-0--0-0--0-0----0-0--0-0--0-0--------------------------------
    . .  . .  . .    . .  . .  . .    . .  . .  . .


play a couple of times

end


Title: Re: Melvins Tabs
Post by: TommyHC on January 29, 2008, 07:21:16 PM
Thanks a lot for tabbing these songs out man. I for one really appreciate it. I've been playing all the songs you've tabbed out from the dale crover ep and they sound perfect. A vast filthy prison is my favorite song off (a) senile animal.. just saying.. i appreciate it...  people are using your tabs.. and they rock..  thanks
Title: Re: Melvins Tabs
Post by: bathroom creep on January 30, 2008, 05:15:17 AM
Hey, thanks tommyhc.  I think you're right, Vast Filthy Prison is a great song.  They should play it live sometime.
I'm tabbing out Real Fucking Nasty at the moment because it's such a kick ass song. 
Title: Re: Melvins Tabs
Post by: bathroom creep on January 30, 2008, 04:04:29 PM
"Real Fucking Nasty"    -  Melvins/HOF split

drop d tuning

Riff 1
 e---------------------------------------------------------------------------------
 b---------------------------------------------------------------------------------
 g--8-8--9-9-----------------------------------------------------------------------
 d--8-8--9-9-----------------------------------------------------------------------
 a--6-6--7-7-----4-6-7--1-1-1------------------------------------------------------  x3
 d---------------4-6-7--1-1-1------------------------------------------------------



 e---------------------------------------------------------------------------------
 b---------------------------------------------------------------------------------
 g--8---------8---------8---------8------------------------------------------------
 d--8---------8---------8---------8------------------------------------------------
 a--6---------6---------6---------6------------------------------------------------
 d---------------------------------------------------------------------------------



Riff 2
 e---------------------------------------------------------------------------------
 b---------------------------------------------------------------------------------
 g--2------------------------------------------------------------------------------
 d--2----------6-------------------------------------------------------------------
 a--0-----0----6-----1--4--1--4--1--2--1-------------------------------------------  x2
 d--------0----6-----1--4--1--4--1--2--1-------------------------------------------



Riff 3   (with lyrics)
 e---------------------------------------------------------------------------------
 b--4------------------------------------------------------------------------------
 g--2----------8-------------------------------------------------------------------
 d--2----------6-------------------------------------------------------------------
 a--0-----0----6-----1--4--1--4--1--2--1-------------------------------------------  x4
 d--------0----6-----1--4--1--4--1--2--1-------------------------------------------



Riff 1 
 e---------------------------------------------------------------------------------
 b---------------------------------------------------------------------------------
 g--8-8--9-9-----------------------------------------------------------------------
 d--8-8--9-9-----------------------------------------------------------------------
 a--6-6--7-7-----4-6-7--1-1-1------------------------------------------------------  x3
 d---------------4-6-7--1-1-1------------------------------------------------------




 e---------------------------------------------------------------------------------
 b---------------------------------------------------------------------------------
 g--8---------8---------8---------8------------------------------------------------
 d--8---------8---------8---------8------------------------------------------------
 a--6---------6---------6---------6------------------------------------------------
 d---------------------------------------------------------------------------------



Riff 3  (with lyrics)
 e---------------------------------------------------------------------------------
 b--4------------------------------------------------------------------------------
 g--2----------8-------------------------------------------------------------------
 d--2----------6-------------------------------------------------------------------
 a--0-----0----6-----1--4--1--4--1--2--1-------------------------------------------  x4
 d--------0----6-----1--4--1--4--1--2--1-------------------------------------------



ends with bass, drums and guitar noise



I'm not too sure about riff 3.

Title: Re: Melvins Tabs
Post by: bathroom creep on February 11, 2008, 02:24:42 PM
"Civilized Worm"   -   (A) Senile Animal


drum intro

Verse without vox   x2


Verse
 e---------------------------------------------------------------------------------
 b---------------------------------------------------------------------------------
 g---------------------------------------------------------------------------------
 d--2--2--x--2--2---2--x--2/7-7---4--4--4--x--4p2----------2--2--2-----------------
 a--2--2--x--4--4---4--x--4/5-5---4--4--4--x--4p2---2---x--4--4--4-----------------
 e--0--0--x--0--------------------0-----------------0---x--0-----------------------



 e---------------------------------------------------------------------------------
 b---------------------------------------------------------------------------------
 g------------9--9-----------------------------------------------------------------
 d------------9--9-------5---------------------------------------------------------
 a--2-2-2-2---7--7---5-7---7-6\----------------------------------------------------
 e--0-0-0-0------------------------------------------------------------------------
    . . . .


Verse
 e---------------------------------------------------------------------------------
 b---------------------------------------------------------------------------------
 g---------------------------------------------------------------------------------
 d--2--2--x--2--2---2--x--2/7-7---4--4--4--x--4p2----------------------------------
 a--2--2--x--4--4---4--x--4/5-5---4--4--4--x--4p2----------------------------------
 e--0--0--x--0--------------------0------------------------------------------------



 e---------------------------------------------------------------------------------
 b---------------------------------------------------------------------------------
 g---------------------------------------------------------------------------------
 d--2--2--x--2--2---2--x--2/7-7---4--4--4--x--4p2----------2--2--2-----------------
 a--2--2--x--4--4---4--x--4/5-5---4--4--4--x--4p2---2---x--4--4--4-----------------
 e--0--0--x--0--------------------0-----------------0---x--0-----------------------



 e---------------------------------------------------------------------------------
 b---------------------------------------------------------------------------------
 g------------9--9-----------------------------------------------------------------
 d------------9--9-------5---------------------------------------------------------
 a--2-2-2-2---7--7---5-7---7-6\----------------------------------------------------
 e--0-0-0-0------------------------------------------------------------------------
    . . . .



Verse
 e---------------------------------------------------------------------------------
 b---------------------------------------------------------------------------------
 g---------------------------------------------------------------------------------
 d--2--2--x--2--2---2--x--2/7-7---4--4--4--x--4p2----------2--2--2-----------------
 a--2--2--x--4--4---4--x--4/5-5---4--4--4--x--4p2---2---x--4--4--4-----------------
 e--0--0--x--0--------------------0-----------------0---x--0-----------------------



 e---------------------------------------------------------------------------------
 b---------------------------------------------------------------------------------
 g---------------------------------------------------------------------------------
 d--2------------------------------------------------------------------------------
 a--2------------------------------------------------------------------------------
 e--0------------------------------------------------------------------------------
       let ring



Verse without vox   x1


Solo
 e---------------------------------------------------------------------------------
 b-----9----9----9----9------------------------------------------------------------
 g--9----9----9----9----9-----7--6--7p6--7p6-----6--7p6-------9---9---9---9---9----
 d--------------------------------------------7-----------7------------------------
 a---------------------------------------------------------------------------------
 e---------------------------------------------------------------------------------



 e---------------------------------------------------------------------------------
 b--7/--x--------------------------------------------------------------------------
 g--7/--x--------------------------------------------------------------------------
 d--7/--x--------------------------------------------------------------------------
 a---------------------------------------------------------------------------------
 e---------------------------------------------------------------------------------
  slide up



Verse  x3


 e---------------------------------------------------------------------------------
 b---------------------------------------------------------------------------------
 g---------------------------------------------------------------------------------
 d--2------------------------------------------------------------------------------
 a--2------------------------------------------------------------------------------
 e--0------------------------------------------------------------------------------
       let ring



 e---------------------------------------------------------------------------------
 b---------------------------------------------------------------------------------
 g---------------------------------------------------------------------------------
 d---------------------------------------------------------------------------------
 a--12/14--14-14-14-14-14-14-14--15p14-14-14-14-14----/12-12-12-12-12--/7--7---7-7-
 e---------------------------------------------------------------------------------



 e---------------------------------------------------------------------------------
 b---------------------------------------------------------------------------------
 g--9-9-9-9-9-9-9-9-9-9-9-9-9-9-9-9-9-9-9------------------------------------------
 d--9-9-9-9-9-9-9-9-9-9-9-9-9-9-9-9-9-9-9------------------------------------------
 a--7-7-7-7-7-7-7-7-7-7-7-7-7-7-7-7-7-7-7------------------------------------------
 e--0-0-0-0-0-0-0-0-0-0-0-0-0-0-0-0-0-0-0------------------------------------------
    . . .     . . . . . .     . . . . . .


Second part  x3

 e---------------------------------------------------------------------------------
 b---------------------------------------------------------------------------------
 g--7---7--6-----------------------------------------------------------------------
 d--7---7--6---2-------------------------------------------------------------------
 a--5---5--4---2-----2-2-2-2-2-2-2-------------------------------------------------
 e-------------0-----0-0-0-0-0-0-0-------------------------------------------------
                     


 e---------------------------------------------------------------------------------
 b---------------------------------------------------------------------------------
 g--7---7--6--7---9----------------------------------------------------------------
 d--7---7--6--7---9---2------------------------------------------------------------
 a--5---5--4--5---7---2-----2-2-2-2-2-2-2------------------------------------------
 e--------------------0-----0-0-0-0-0-0-0------------------------------------------
                           



 e---------------------------------------------------------------------------------
 b---------------------------------------------------------------------------------
 g--7---7--6-----------------------------------------------------------------------
 d--7---7--6---2-------------------------------------------------------------------
 a--5---5--4---2-----2-2-2-2-2-2-2-------------------------------------------------
 e-------------0-----0-0-0-0-0-0-0-------------------------------------------------
                     



 e---------------------------------------------------------------------------------
 b---------------------------------------------------------------------------------
 g--5--5-5---4--5--------9---------------------------------------------------------
 d--5--5-5---4--5---8----9---------------------------------------------------------
 a--3--3-3---2--3---8----7---------------------------------------------------------
 e------------------6----0---------------------------------------------------------



 e---------------------------------------------------------------------------------
 b---------------------------------------------------------------------------------
 g--9-9-9-9-9-9-9-9-9-9-9-9-9-9-9-9-9-9-9------------------------------------------
 d--9-9-9-9-9-9-9-9-9-9-9-9-9-9-9-9-9-9-9------------------------------------------
 a--7-7-7-7-7-7-7-7-7-7-7-7-7-7-7-7-7-7-7------------------------------------------
 e--0-0-0-0-0-0-0-0-0-0-0-0-0-0-0-0-0-0-0------------------------------------------
    . . .     . . . . . .     . . . . . .


End with

 e---------------------------------------------------------------------------------
 b---------------------------------------------------------------------------------
 g--9------------------------------------------------------------------------------
 d--9------------------------------------------------------------------------------
 a--7------------------------------------------------------------------------------
 e--0------------------------------------------------------------------------------
   



 
That's it.  I'm not sure but I did my best.
Title: Re: Melvins Tabs
Post by: Idlehanz on February 28, 2008, 09:05:20 PM
Being as I'm just to lazy to look right now, but has Grinding Process been tab'd here?  I've looked at other sites, and they don't have it quite right.
Title: Re: Melvins Tabs
Post by: norecess on February 29, 2008, 02:41:03 AM
Yep, see http://www.themelvins.net/wiki/index.php?title=Category:Tablature, which will lead you to http://www.themelvins.net/wiki/index.php?title=Grinding_Process. Happy riffing!
Title: Re: Melvins Tabs
Post by: Idlehanz on March 01, 2008, 11:01:26 AM
Yep, see http://www.themelvins.net/wiki/index.php?title=Category:Tablature, which will lead you to http://www.themelvins.net/wiki/index.php?title=Grinding_Process. Happy riffing!
Gracius
Title: Re: Melvins Tabs
Post by: Dale_Nixon on March 09, 2008, 11:32:38 PM
If Some one could tab out the hawk id really appreciate it i can figure it out myself
Title: Re: Melvins Tabs
Post by: bathroom creep on March 10, 2008, 04:30:56 PM
If Some one could tab out the hawk id really appreciate it i can figure it out myself

I thought there was a tab for it already but I guess I was wrong. I checked the Wiki but there's nothing there.
I'm gonna give it a shot soon, be patient.
Title: Re: Melvins Tabs
Post by: Dale_Nixon on March 14, 2008, 06:08:15 PM
Cool that would be great me and my bro try and jam most of the melvins songs and the wiki has really helped us on most of the songs but thats one ive really been trying to figure out.
Title: Re: Melvins Tabs
Post by: a bag of holes on April 16, 2008, 02:11:15 PM
i would love one for the hawk!
Title: Re: Melvins Tabs
Post by: bathroom creep on April 16, 2008, 03:46:30 PM
Yeah, I still need to do that.... didn't get around to it yet but I'll try to give it a shot as soon as possible. I do have ideas how to play the song, and I've actually played it already but I'm not sure if it sounds accurate, I need to figure it out a bit more.
Title: Re: Melvins Tabs
Post by: YearZero on April 26, 2008, 01:06:06 AM
Does anyone have tabs for "Honey Bucket"? I need bass tabs for that one or I can figure it out from guitar tabs as well. Our band decided to start playing it.
Title: Re: Melvins Tabs
Post by: Eponymous on April 26, 2008, 04:45:41 AM
Does anyone have tabs for "Honey Bucket"? I need bass tabs for that one or I can figure it out from guitar tabs as well. Our band decided to start playing it.

Guitar tab;
http://www.themelvins.net/wiki/index.php?title=Honey_Bucket
Title: Re: Melvins Tabs
Post by: YearZero on April 27, 2008, 11:51:05 PM
Does anyone have tabs for "Honey Bucket"? I need bass tabs for that one or I can figure it out from guitar tabs as well. Our band decided to start playing it.

Guitar tab;
http://www.themelvins.net/wiki/index.php?title=Honey_Bucket

Thanks, bro.
Title: Re: Melvins Tabs
Post by: bathroom creep on May 19, 2008, 02:45:11 PM
I think I'm gonna tab out Dog Island, now that I have a live version that I can listen to as often as I want without
having a bad conscience. And yeah, I'm gonna tab out the Hawk as well... it's been a while, I know.
Title: Re: Melvins Tabs
Post by: bathroom creep on June 25, 2008, 04:04:21 PM
"Dog Island"   -   Nude With Boots


Drop A tuning



Part 1

Intro
 e-------------------------------------------------------------------------------------
 b-------------------------------------------------------------------------------------
 g-------------------------------------------------------------------------------------
 d-------------------------------------------------------------------------------------
 a--0--------------------------------0-------------------------------------------------
 a--0---0-0-0-0-0-0-0-0-0-0-0-0-0-0--0---0-0-0-0-0-0-0-0-0-0-0-0-0-0-------------------
        . . . . . . . . . . . . . .      . . . . . . . . . . . . . .




Verse
 e-------------------------------------------------------------------------------------
 b-------------------------------------------------------------------------------------
 g--^----------------------------------------------------------------------------------
 d--2---------------------------------0------------0-----2--4----------7~--------------
 a--3--0-------0-------0------0---0---1--0---0--3--1--3--3--5----------0--------------- 
 a--3--0--0-0--0--0-0--0--0-0-0-0-0---1--0---0--3--1--3--3--5--------------------------
          . .     . .     . .   .

                                                                                                   


 e-------------------------------------------------------------------------------------
 b-------------------------------------------------------------------------------------
 g-------------------------------------------------------------------------------------
 d-------------------------------------------------------------------------------------
 a------0------0---0------------0----^--0-----5-6--0-0--0------------------------------ 
 a--0-0-0--0-0-0-0-0-0-0-0--5h7------5--0--0--5-6--0-0--0------------------------------
    . .    . .   .   . . .                 .       . .
 


3x verse with vocals


 e-------------------------------------------------------------------------------------
 b-------------------------------------------------------------------------------------
 g--10------7--------------------------------------------------------------------------
 d--10------7--------------------------------------------------------------------------
 a--8-------5------------0-3--0-5--0-3--0-6---0-3--5--3-0------------------------------ 
 a-----------------------0-3--0-5--0-3--0-6---0-3--5--3-0------------------------------



3x verse with vocals



 e-------------------------------------------------------------------------------------
 b-------------------------------------------------------------------------------------
 g--10------7--------------------------------------------------------------------------
 d--10------7--------------------------------------------------------------------------
 a--8-------5------------0-3--0-5--0-3--0-6-------------------------------------------- 
 a-----------------------0-3--0-5--0-3--0-6--------------------------------------------




Part 2

 e-------------------------------------------------------------------------------------
 b-------------------------------------------------------------------------------------
 g-------------------------------------------------------------------------------------
 d-------------------------------------------------------------------------------------
 a--0--3--5--3-0--5-6--------0--------------------------------------------------------- 
 a--0--3--5--3-0--5-6--0-0-0-0-0-0-0-0-------------------------------------------------
                       . . .   . . . .




 e-------------------------------------------------------------------------------------
 b-------------------------------------------------------------------------------------
 g-------------------------------------------------------------------------------------
 d-------------------------------------------------------------------------------------
 a--3--5--3-0--5-6-------3-5----------------------------------------------------------- 
 a--3--5--3-0--5-6--0-0--3-5--0-0-0----------------------------------------------------
                    . .       . . .




 e-------------------------------------------------------------------------------------
 b-------------------------------------------------------------------------------------
 g-------------------------------------------------------------------------------------
 d-------------------------------------------------------------------------------------
 a--3--5--3-0--5-6--------0------------------------------------------------------------ 
 a--3--5--3-0--5-6--0-0-0-0-0-0-0-0----------------------------------------------------
                    . . .   . . . .




 e-------------------------------------------------------------------------------------
 b-------------------------------------------------------------------------------------
 g-------------------------------------------------------------------------------------
 d-------------------------------------------------------------------------------------
 a--3--5--3-0--5-6-------3-5----------------------------------------------------------- 
 a--3--5--3-0--5-6--0-0--3-5--0-0-0----------------------------------------------------
                    . .       . . .




 e-------------------------------------------------------------------------------------
 b-------------------------------------------------------------------------------------
 g-------------------------------------------------------------------------------------
 d--2--4--2-----4-5--------------------------------------------------------------------
 a--3--5--2-4---5-6------0------------------------------------------------------------- 
 a--3--5--3-0---5-6--0-0-0-0-0-0-0-----------------------------------------------------
                     . .   . . . .




 e-------------------------------------------------------------------------------------
 b-------------------------------------------------------------------------------------
 g-------------------------------------------------------------------------------------
 d--2--4--2-----4-5-------2-4-------0-2-0-2--------------------------------------------
 a--3--5--3-4---5-6-------3-5-------1-3-1-3--0----------------------------------------- 
 a--3--5--3-0---5-6--0-0--3-5--0-0--1-3-1-3--0-0-0-0-----------------------------------
                     . .       . .             . . .




 e-------------------------------------------------------------------------------------
 b-------------------------------------------------------------------------------------
 g------------------------^------------------------------------------------------------
 d--4-5-------2-4---------2------------------------------------------------------------
 a--5-6-------3-5---------3--0--------------------------------------------------------- 
 a--5-6--0-0--3-5--0-0-0--3--0--0-0-0--------------------------------------------------
         . .       . . .        . . .




 e-------------------------------------------------------------------------------------
 b-------------------------------------------------------------------------------------
 g-------------------------------------------------------------------------------------
 d--4-5-------2-4-------0-2-0-2--------------------------------------------------------
 a--5-6-------3-5-------1-3-1-3--0----------------------------------------------------- 
 a--5-6--0-0--3-5--0-0--1-3-1-3--0-0-0-0-----------------------------------------------
         . .       . .             . . .





 e-------------------------------------------------------------------------------------
 b-------------------------------------------------------------------------------------
 g------------------------^------------------------------------------------------------
 d--4-5-------2-4---------2------------------------------------------------------------
 a--5-6-------3-5---------3--0--------------------------------------------------------- 
 a--5-6--0-0--3-5--0-0-0--3--0---------------------------------------------------------
         . .       . . .     




Part 3

 e-------------------------------------------------------------------------------------
 b-------------------------------------------------------------------------------------
 g-------------------------------------------------------------------------------------
 d-------------------------------------------------------------------------------------
 a--0-----0------3-0------0------5-0------0------10--9--10-11-12----------------------- 
 a--0-0-0-0-0-0--3-0--0-0-0-0-0--5-0--0-0-0-0-0--10--9--10-11-12-----------------------
      . .   . .       . .   . .       . .   . .
   

x 2 without vocals
x 4 with vocals 
x 2 with solo
x 4 with vocals jared



Solo
 e-------------------------------------------------------------------------------------
 b------------------^--------^---------------------------------------------------------
 g------------------5-----5--5---------------------------------------------------------
 d--------7--4h5-----------------7----7-5--7-7-----5-7-5-4--5--4-5-4-5-4-5-4-----------
 a--5-4-------------------------------------------------------------------------------- 
 a-------------------------------------------------------------------------------------




Part 4

Riff 1
 e-------------------------------------------------------------------------------------
 b-------------------------------------------------------------------------------------
 g-------------------------------------------------------------------------------------
 d-------------------------------------------------------------------------------------
 a------------------------------------------------------------------------------------- 
 a--0--0-0-0-0-0-3--3-3-3-3-3-3-3--6-6-6-6-6-6-6--5--5-5-5-5-5-5-----------------------
       . . . . .    . . . . . . .    . . . . . .     . . . . . .


                                                                                    x 2 without vocals
                                                                                             
 e-------------------------------------------------------------------------------------
 b-------------------------------------------------------------------------------------
 g-------------------------------------------------------------------------------------
 d-------------------------------------------------------------------------------------
 a--0-3--0-6--0-1--0-4---0-1-0-3------------------------------------------------------- 
 a--0-3--0-6--0-1--0-4---0-1-0-3-------------------------------------------------------



Riff 1 x 2 with vocals



 e-------------------------------------------------------------------------------------
 b-------------------------------------------------------------------------------------
 g-------------------------------------------------------------------------------------
 d-------------------------------------------------------------------------------------   x 2
 a--0-3--0-6--0-1--0-4---0-1-0-3------------------------------------------------------- 
 a--0-3--0-6--0-1--0-4---0-1-0-3-------------------------------------------------------
   



end with drums


I already own the album so I guess there's nothing wrong with tabbing it out.
By the way, the Hawk is almost finished as well.
Title: Re: Melvins Tabs
Post by: Dale_Nixon on June 26, 2008, 01:11:17 AM
Me Like.
Title: Re: Melvins Tabs
Post by: norecess on June 26, 2008, 03:55:18 AM
Good job, creep!
Title: Re: Melvins Tabs
Post by: bathroom creep on June 26, 2008, 04:35:50 PM
Thanks. I tried extra hard for this new great piece of Melvins music. :)
Title: Re: Melvins Tabs
Post by: Andy Wood on July 06, 2008, 07:05:28 PM
Any chance of getting tabs for the Making Love demos? Excess Pool would be sweet...
Title: Re: Melvins Tabs
Post by: bathroom creep on July 07, 2008, 03:44:10 PM
Any chance of getting tabs for the Making Love demos? Excess Pool would be sweet...

I think that's possible.  You have to be patient though, don't know when I'll get around to it.
Title: Re: Melvins Tabs
Post by: Chris P. Bacon on July 14, 2008, 11:21:55 AM

The Kicking Machine
main riff played 3 times in intro    Then right before the singing/BACK TO MAIN RIFF
E--------------------------------                E------------
B--------------------------------                B------------         
G---9----------------------------                G---9--------
D---9----767676-------54---------                D---9----2---
A---7------------7--7--------5757                A---7----2---
E---0---------------------------                 E---0----0---

PART AT 1:05
E----------------------------      BACK TO MAIN
B----------------------------
G---9-------7---10---7---9---
D---9---2---7---10---7---9---
A---7---2---5---8----5---7---
E---0---0----------------0---

1:29 PUT THE MAIN RIFF RIGHT BEFORE THIS
E----------------------------------------------
B----------------------------------------------
G----------------------------------------------
D------54-----54-----54-----54-----------------
A---757---757----757----757-----7575757575757575  HAMMER ONS
E----------------------------------------------

1:35-1:55
E----------------------------------------------------                       
B----------------------------------------------------
G----------------------------------------------------
D---------------444----------------------------------
A------777--555-----555-444--------5----45----57-----
E--000--------------------------00---00----00--------

LITTLE SOLO THING (LISTEN TO IT TO LEARN HOW TO STRUM IT)
E--17--12--
B----------
G----------
D----------
A----------
E----------

2:03
E--------------------------------
B--------------------------------
G--------5-----8-7---------------
D--7-8-5-5-8-7-8-7--7-8-9-8-9-10-
A--7-8-5-3-8-7-6-5--7-8-9-8-9-10-
E--5-6-3---6-5------5-6-7-6-7-8--  AT THE END OF THE SONG THE STRUM PATTERN
                                   CHANGES MORE UP BEAT PUNK.
                                   ENJOY CHRIS P. BACON         
                         
Title: Re: Melvins Tabs
Post by: norecess on July 14, 2008, 11:39:55 AM
Use the 'teletype' format ((http://www.themelvins.net/forum/Themes/pdx-dk114v2/images/bbc/tele.gif)) like I just did now.

E--------------------------------                E------------
B--------------------------------                B------------         
G---9----------------------------                G---9--------
D---9----767676-------54---------                D---9----2---
A---7------------7--7--------5757                A---7----2---
E---0---------------------------                 E---0----0---

PART AT 1:05
E----------------------------      BACK TO MAIN
B----------------------------
G---9-------7---10---7---9---
D---9---2---7---10---7---9---
A---7---2---5---8----5---7---
E---0---0----------------0---

1:29 PUT THE MAIN RIFF RIGHT BEFORE THIS
E----------------------------------------------
B----------------------------------------------
G----------------------------------------------
D------54-----54-----54-----54-----------------
A---757---757----757----757-----7575757575757575  HAMMER ONS
E----------------------------------------------

1:35-1:55
E----------------------------------------------------                       
B----------------------------------------------------
G----------------------------------------------------
D---------------444----------------------------------
A------777--555-----555-444--------5----45----57-----
E--000--------------------------00---00----00--------

LITTLE SOLO THING (LISTEN TO IT TO LEARN HOW TO STRUM IT)
E--17--12--
B----------
G----------
D----------
A----------
E----------

2:03
E--------------------------------
B--------------------------------
G--------5-----8-7---------------
D--7-8-5-5-8-7-8-7--7-8-9-8-9-10-
A--7-8-5-3-8-7-6-5--7-8-9-8-9-10-
E--5-6-3---6-5------5-6-7-6-7-8--
Title: Re: Melvins Tabs
Post by: Chris P. Bacon on July 14, 2008, 11:43:31 AM
Hey thanks
Title: Re: Melvins Tabs
Post by: bathroom creep on July 16, 2008, 03:37:08 PM
Nice one, I hope it's okay that I added it to the Melvins Wiki:

http://themelvins.net/wiki/index.php?title=The_Kicking_Machine


By the way, I'll post my version of the Hawk very soon.
Title: Re: Melvins Tabs
Post by: a bag of holes on July 16, 2008, 08:59:29 PM
i can not wait for the hawk.  i know i have been saying that all along but it is no joke. it will be amazing!
Title: Re: Melvins Tabs
Post by: Chris P. Bacon on July 17, 2008, 12:20:03 PM
DIES IRAEA
INTRO/OUTRO USE SOME HEAVY DISTORTION
THE INTRO AND OUTRO ARE IN A TUNING/THE REST STANDARD TUNING

E----------------------------------------------
B----------------------------------------------
G----------------------------------------------
D----------------------------------------------
A----------------------------------------------
E---5-------1--5-------1--5------1--5-----1---5
 
0:44-1:05
E------------------------------------------------------------------------------------------
B------------------------------------------------------------------------------------2--2
G------------------------------------------------------------------------------------2--2
D------------------------------------------------------------------------------------2--2
A---3-2-3-0-2--------------------------3-3-5--3-2-0------------2-3-2-2-0--0
E----------------------3-5-5-5-----------------------------3----------------------------


1:08-1:21/1:50-2:03/2:32-2:46
E-------------------------------------------
B------------------------------------------2
G------------------------------------------2
D------------------------------------------2
A---7-10-10-9-5-7-7-5-3-5-7-7-0
E-------------------------------------------


1:26-1:47/2:09-2:30
E--------------------------------------------------------------------
B--------------------------------------------------------------------
G--------------------------------------------------------------------
D---10--9--10--7--9--5--7--7--10--10--12--10--9--7--5--9--10--9--7--7
A---10--9--10--7--9--5--7--7--10--10--12--10--9--7--5--9--10--9--7--7
E ---8---7--8----5--7--3--5--5---8----8---10--8---7---5--3--7---8--7---5--5

BY CHRIS P. BACON
Title: Re: Melvins Tabs
Post by: Chris P. Bacon on July 17, 2008, 03:19:55 PM
BLOOD WITCH
CHRIS P. BACON


 
0:00-0:26
E-------------------------------------------------------------------------------------
B-------------------------------------------------------------------------------------
G-------------------------------------------------------------------------------------
D---0--0-0-0--0-0-0--0-0---0--0-0-0--0-0-0--0--0-0-0--0-0--0-0-0--0-0-0--0-0-0-10>BEND
A---0--0-0-0--0-0-0--0-0---0--0-0-0--0-0-0--0--0-0-0--0-0--0-0-0--0-0-0--0-0-0-10>BEND
D---0--0-0-0--0-0-0--0-0---0--0-0-0--0-0-0--0--0-0-0--0-0--0-0-0--0-0-0--0-0-0-10>BEND

E--------------------------------------------------------------PAUSE                    ---------------------------------
B--------------------------------------------------------------                                  ---------------------------------
G--------------------------------------------------------------                                 ---------------------------------
D---0--0-0-0--0-0-0--0-0---0--0-0-0--0-0-0--0-                                 -0-0-0--0-0--0-0-0--0-0-0--0-0-0-
A---0--0-0-0--0-0-0--0-0---0--0-0-0--0-0-0--0-                                 -0-0-0--0-0--0-0-0--0-0-0--0-0-0-
D---0--0-0-0--0-0-0--0-0---0--0-0-0--0-0-0--0-                                   0-0-0--0-0--0-0-0--0-0-0--0-0-0-


                                                 
                                                 RIGHT BEFORE SINGING COMES IN
E-----------------------------------------------------     
B-----------------------------------------------------     
G-----------------------------------------------------   
D---0--0-0-0--0-0-0--0-0---0--0-0-0--0-0-0--0----6-3-5         
A---0--0-0-0--0-0-0--0-0---0--0-0-0--0-0-0--0----6-3-5         
D---0--0-0-0--0-0-0--0-0---0--0-0-0--0-0-0--0----6-3-5


0:27-1:19 MAIN RIFF
E-----------------------------------------------------------------------------------------
B-----------------------------------------------------------------------------------------
G-----------------------------------------------------------------------------------------
D---0--0-0-0--0-0-0--3-0-5--0--0-0-0--0-0-0--0-3BEND-0-0-0-0-0--0-0-0--0-0-0--0-0-0-0-0-10
A---0--0-0-0--0-0-0--3-0-5--0--0-0-0--0-0-0--0-3BEND-0-0-0-0-0--0-0-0--0-0-0--0-0-0-0-0-10
D---0--0-0-0--0-0-0--3-0-5--0--0-0-0--0-0-0--0-3BEND-0-0-0-0-0--0-0-0--0-0-0--0-0-0-0-0-10

E-----------------------------------------------------     
B-----------------------------------------------------     
G-----------------------------------------------------   
D---0--0-0-0--0-0-0--0-0---0--0-0-0--0-0-0--0----6-3-5         
A---0--0-0-0--0-0-0--0-0---0--0-0-0--0-0-0--0----6-3-5         
D---0--0-0-0--0-0-0--0-0---0--0-0-0--0-0-0--0----6-3-5

AT 1:20 START DOING THIS
E-----------------------------------
B-----------------------------------
G-----------------------------------
D---0--0-0-0--0-0-0--0-0---0--10BEND
A---0--0-0-0--0-0-0--0-0---0--10BEND
D---0--0-0-0--0-0-0--0-0---0--10BEND

BACK TO MAIN RIFF LIKE THIS
E-----------------------------------------------------     
B-----------------------------------------------------     
G-----------------------------------------------------   
D---0--0-0-0--0-0-0--0-0---0--0-0-0--0-0-0--0----6-3-5         
A---0--0-0-0--0-0-0--0-0---0--0-0-0--0-0-0--0----6-3-5         
D---0--0-0-0--0-0-0--0-0---0--0-0-0--0-0-0--0----6-3-5

2:05-2:44 LISTEN TO THE ALBUM FOR CORRECT STRUMMING TO THE END THERE ARE SOME OPEN NOTES
BETWEEN THE 3 AND 5 PART.
E--------------------------------------------------------------------------------------------
B--------------------------------------------------------------------------------------------
G--------------------------------------------------------------------------------------------
D--0-3-5-3-5-3-------------------------------------------------------------------------O
A--0-3-5-3-5-3------------------------------------------------------------------------O
D--0-3-5-3-5-3---------5--3--5--3--5--3--5--3----------------------------------O
Title: Re: Melvins Tabs
Post by: Salt on August 02, 2008, 10:47:32 AM
I've been trying to figure out a tab for You've Never Been Right but it's very fast and I'm a shitty guitarist so it's a little confusing. Here's one of the main riffs, though:

E---------------------------------------------------------------------------------------
B---------------------------------------------------------------------------------------
G---------------------------------------------------------------------------------------
D---0-3-5-6-7-3-5-3-0-3-5-6-7-3-5-3-0-3-5-6-7-3-5-3-0-3-5-6-7
A---0-3-5-6-7-3-5-3-0-3-5-6-7-3-5-3-0-3-5-6-7-3-5-3-0-3-5-6-7
D---0-3-5-6-7-3-5-3-0-3-5-6-7-3-5-3-0-3-5-6-7-3-5-3-0-3-5-6-7





Title: Re: Melvins Tabs
Post by: bathroom creep on August 02, 2008, 03:41:19 PM
"The Hawk"   -   (A) Senile Animal


Drop D tuning


 Intro
 e-------------------------------------------------------------------------------------
 b-------------------------------------------------------------------------------------
 g-------------------------------------------------------------------------------------
 d-----^------------------^------------------^-----------------------------------------
 a--0--3--0-0--0-0--0--0--3--0-0--0-0--0--0--3--0-0--0-0--0--0---9x10x9x10x9x10--------
 d--0--3--0-0--0-0--0--0--3--0-0--0-0--0--0--3--0-0--0-0--0--0---9x9-x9x-9x9x-9--------
          . .  . .  .  .     . .  . .  .  .     . .  . .  .  .

 

 e-------------------------------------------------------------------------------------
 b-------------------------------------------------------------------------------------
 g-------------------------------------------------------------------------------------
 d-----^------------------^------------------------------------------------------------
 a--0--3--0-0--0-0--0--0--3--0-0--0-0--0--0---9x10x9x10x9x10---------------------------    x3
 d--0--3--0-0--0-0--0--0--3--0-0--0-0--0--0---9x9-x9x-9x9x-9---------------------------
          . .  . .  .  .     . .  . .  .  .     



 e-------------------------------------------------------------------------------------
 b-------------------------------------------------------------------------------------
 g-------------------------------------------------------------------------------------
 d--7~---------------------------------------------------------------------------------
 a--5~--------------------------------------------------------------------------------- 
 d--0~---------------------------------------------------------------------------------



Riff 1
 e-------------------------------------------------------------------------------------
 b-------------------------------------------------------------------------------------
 g-------------------------------------------------------------------------------------
 d----------------------------------------------^-----7--------------------------------
 a--0--3--0-0-0--3-0-3-0--5--6-6--0-0--3h5-3-0--3--0--5-------------------------------- 
 d--0--3--0-0-0--3-0-3-0--5--6-6--0-0--3h5-3-0--3--0-----------------------------------
    .     . . .                   . .       



 e-------------------------------------------------------------------------------------
 b-------------------------------------------------------------------------------------
 g-------------------------------------------------------------------------------------
 d-------------------------------------------------------------------------------------
 a--0-0-3h5-3-0-3----3-3-3-3-3-3-3-----------------------------------------------------
 d--0-0-3h5-3-0-3----3-3-3-3-3-3-3-----------------------------------------------------
    . .              . . . . . .



Riff 1
 e-------------------------------------------------------------------------------------
 b-------------------------------------------------------------------------------------
 g-------------------------------------------------------------------------------------
 d----------------------------------------------^-----7--------------------------------
 a--0--3--0-0-0--3-0-3-0--5--6-6--0-0--3h5-3-0--3--0--5-------------------------------- 
 d--0--3--0-0-0--3-0-3-0--5--6-6--0-0--3h5-3-0--3--0-----------------------------------
    .     . . .                   . .       



 e-------------------------------------------------------------------------------------
 b-------------------------------------------------------------------------------------
 g-------------------------------------------------------------------------------------
 d-------------------------------------------------------------------------------------
 a--0-0-3h5-3-0-3----0-0-0-0-0-0-3-----------------------------------------------------
 d--0-0-3h5-3-0-3----0-0-0-0-0-0-3-----------------------------------------------------
    . .              . . . . . . 



Verse (play 4 times, without vocals)
 e-------------------------------------------------------------------------------------
 b-------------------------------------------------------------------------------------
 g-------------------------------------------------------------------------------------
 d-----^--------------------^----------------------------------------------------------
 a--0--3p0-0-0--0-0--0--0---3p0-0-0--0-0--0--0-----------------------------------------   x4
 d--0--3p0-0-0--0-0--0--0---3p0-0-0--0-0--0--0-----------------------------------------
    .      . .  . .  .  .       . .  . .  .  .
 


Verse (with vocals)
 e-------------------------------------------------------------------------------------
 b-------------------------------------------------------------------------------------
 g-------------------------------------------------------------------------------------
 d-----^--------------------^----------------------------------------------------------
 a--0--3p0-0-0--0-0--0--0---3p0-0-0--0-0--0--0---3p0-0-0--0-0--0--0--------------------   
 d--0--3p0-0-0--0-0--0--0---3p0-0-0--0-0--0--0---3p0-0-0--0-0--0--0--------------------
    .      . .  . .  .  .       . .  . .  .  .       . .  . .  .  .
   

                                                                                         
 e-------------------------------------------------------------------------------------
 b-------------------------------------------------------------------------------------
 g--5--5--5--5-------------------------------------------------------------------------
 d--5--5--3--4-------------------------------------------------------------------------
 a--3--3--3--3-------------------------------------------------------------------------
 d-------------------------------------------------------------------------------------



Verse with vocals x 3
Riff 1  (palm muted)
Verse with vocals x 3 
   


Riff 2 (without vocals)  x2
 e-------------------------------------------------------------------------------------
 b-------------------------------------------------------------------------------------
 g-------------------------------------------------------------------------------------
 d-------------------------------------------------------------------------------------
 a--3p0---------5--0------------------------------------------------------------------- 
 d------5p3-3---5--0-------------------------------------------------------------------



 e-------------------------------------------------------------------------------------
 b-------------------------------------------------------------------------------------
 g-------------------------------------------------------------------------------------
 d--^----------------------------------------------------------------------------------
 a--3--0--0--0----3p0---------5--0----------------------------------------------------- 
 d--3--0--0--0--------5p3-3---5--0-----------------------------------------------------



 e-------------------------------------------------------------------------------------
 b-------------------------------------------------------------------------------------
 g-------------------------------------------------------------------------------------
 d--^----------------3~----------------------------------------------------------------
 a--3--0--0--0-------3~---------------------------------------------------------------- 
 d--3--0--0--0-------3~----------------------------------------------------------------



Riff 2 (with vocals)
 e-------------------------------------------------------------------------------------
 b-------------------------------------------------------------------------------------
 g-------------------------------------------------------------------------------------
 d-------------------------------------------------------------------------------------
 a--3p0---------5--0------------------------------------------------------------------- 
 d------5p3-3---5--0-------------------------------------------------------------------



 e-------------------------------------------------------------------------------------
 b-------------------------------------------------------------------------------------
 g-------------------------------------------------------------------------------------
 d--^----------------------------------------------------------------------------------
 a--3--0--0--0----3p0---------5--0----------------------------------------------------- 
 d--3--0--0--0--------5p3-3---5--0-----------------------------------------------------



 e-------------------------------------------------------------------------------------
 b-------------------------------------------------------------------------------------
 g-------------------------------------------------------------------------------------
 d--^----------------------------------------------------------------------------------
 a--3--0--0--0--------0-0--3-3--6---3-6-3-5-3------------------------------------------ 
 d--3--0--0--0--------0-0--3-3--6---3-6-3-5-3------------------------------------------



 e-------------------------------------------------------------------------------------
 b-------------------------------------------------------------------------------------
 g-------------------------------------------------------------------------------------
 d-------------------------------------------------------------------------------------
 a--3p0---------5--0------------------------------------------------------------------- 
 d------5p3-3---5--0-------------------------------------------------------------------



 e-------------------------------------------------------------------------------------
 b-------------------------------------------------------------------------------------
 g-------------------------------------------------------------------------------------
 d--^----------------------------------------------------------------------------------
 a--3--0--0--0----3p0---------5--0----------------------------------------------------- 
 d--3--0--0--0--------5p3-3---5--0-----------------------------------------------------



 e-------------------------------------------------------------------------------------
 b-------------------------------------------------------------------------------------
 g------------------5-/-8--------------------------------------------------------------
 d--3~--------------5-/-8--------------------------------------------------------------
 a--3~--------------3-/-6-------------------------------------------------------------- 
 d--3~---------------------------------------------------------------------------------


End with drums



I finally got to finish my version of The Hawk. I'm not sure about some parts because there are things that are really hard to figure out, for example riff 2. Any feedback would be appreciated.
Title: Re: Melvins Tabs
Post by: a bag of holes on August 02, 2008, 09:22:35 PM
thank you sooooo! much!
Title: Re: Melvins Tabs
Post by: Dale_Nixon on August 03, 2008, 01:44:56 AM
Thank you Very Much.
Title: Re: Melvins Tabs
Post by: ZOMBIE-BUDDHA92 on August 09, 2008, 12:31:29 PM
anybody have a clue what the king buzzos tunings were
on mangled demos
and gluey porch treatments?
I'm thinking it's either standard or half step down.
Title: Re: Melvins Tabs
Post by: DamageInc on August 12, 2008, 11:56:45 PM
anyone have bass tabs for The Bit? I tried looking around this topic but there is so many pages. I seen some guitar tabs but i'm not sure if trying to play bass to it would work
Title: Re: Melvins Tabs
Post by: Dead Cowboy on August 14, 2008, 09:53:24 AM
anybody have a clue what the king buzzos tunings were
on mangled demos
and gluey porch treatments?
I'm thinking it's either standard or half step down.

For gluey... Dropped D, maybe not the whole album, but a good chunk of it.
Title: Re: Melvins Tabs
Post by: Eponymous on August 28, 2008, 12:26:54 AM
anyone have bass tabs for The Bit? I tried looking around this topic but there is so many pages. I seen some guitar tabs but i'm not sure if trying to play bass to it would work

It's in the wiki;
http://www.themelvins.net/wiki/index.php?title=Category:Tablature
Title: Re: Melvins Tabs
Post by: Melvinsaniac on September 03, 2008, 11:26:02 PM
The Bit (bass)
Drop D


D-0<12__12>0____________________________0<12__________________________0<12
A-
D-
G-


(repeat)
D-00 0 0 0       0         0           000
A-55              3        5          3        66
D-               
G-



D-0<12__12>0____________________________0<12__________________________0<12
A-
D-
G-


(repeat)
A-5     5
D-   6      666



D-3 0 (pause) 00000000000000000000000000000000000000000000000000000 33 0  000000000000000



D-3332103210


(repeat)
D-00 0 0 0       0         0           000         
A-55              3        5          3        66
D-               
G-


D-0
A-5


(repeat)
A-5     5
D-   6      666

D-3 0

D-0000          00             00           00

A-             55              55           55           5s3



D-3332103210


(repeat)
D-00 0 0 0       0         0           000         
A-55              3        5          3        66
D-               
G-



D-00 0 0 0       0         0           000         
A-55              3        5          3        66    66 5 3
D-               
G-




D-00 0 0 0       0         0           0       HOLD Note....
A-55              3        5          3     6
D-               
G-




My first tab go easy....
Title: Re: Melvins Tabs
Post by: norecess on September 04, 2008, 02:34:14 AM
The Bit (bass)
Drop D

Code: [Select]
D-0<12__12>0____________________________0<12__________________________0<12
A-
D-
G-


(repeat)
D-00 0 0 0       0         0           000
A-55              3        5          3        66
D-               
G-



D-0<12__12>0____________________________0<12__________________________0<12
A-
D-
G-


(repeat)
A-5     5
D-   6      666



D-3 0 (pause) 00000000000000000000000000000000000000000000000000000 33 0  000000000000000



D-3332103210


(repeat)
D-00 0 0 0       0         0           000        
A-55              3        5          3        66
D-               
G-


D-0
A-5


(repeat)
A-5     5
D-   6      666

D-3 0

D-0000          00             00           00

A-             55              55           55           5s3



D-3332103210


(repeat)
D-00 0 0 0       0         0           000        
A-55              3        5          3        66
D-               
G-



D-00 0 0 0       0         0           000        
A-55              3        5          3        66    66 5 3
D-               
G-




D-00 0 0 0       0         0           0       HOLD Note....
A-55              3        5          3     6
D-               
G-



My first tab go easy....
Title: Re: Melvins Tabs
Post by: TJP on September 22, 2008, 02:44:55 PM
could anyone help me with putting these onto the melvins wiki?

http://www.themelvins.net/forum/index.php?topic=2273.195
Title: Re: Melvins Tabs
Post by: bathroom creep on September 23, 2008, 09:04:03 AM
Some of them were already there, but I added Influence of Atmosphere, Heater Moves And Eyes and
Echo Head/Don't Piece Me for starters.

http://www.themelvins.net/wiki/index.php?title=Influence_of_Atmosphere
Title: Re: Melvins Tabs
Post by: TJP on September 24, 2008, 02:05:20 PM
Thanks for doin that mate! i got its shoved and easy as it was aswell

http://www.themelvins.net/forum/index.php?topic=2273.180

http://www.themelvins.net/forum/index.php?topic=2273.195
Title: Anaconda cover
Post by: turnacus on October 06, 2008, 03:52:20 PM
Anyone covered the song before? Anyone wanna help me break down the tab better. Christ the shit is hard.

I learned Oven, but Anaconda is like caluculus to Oven's math rock.

Edit: Of course, this is assuming the tab is correct. Any help for a brotha?
Title: Re: Anaconda cover
Post by: turnacus on October 06, 2008, 06:07:24 PM
Well as it turns out, the tab is sorta helpful, but also missing a part. Maybe I should edit it.

It's all about timing. I don't know how buzzo and dale made that song. shit be hard.
Title: Re: Anaconda cover
Post by: Andy Wood on October 06, 2008, 10:29:36 PM
I wouldn't be too concerned about the timing. Its more or less idiosyncratic rhythm, coming from your inner melvinite. This happened to me on occasion when playing Easy As It Was and Heater Moves And Eyes on both guitar and drums. I could never figure out or write down the timing, but I could just feel it when playing.

Also, if the odd sounding chord used through the song is throwing you off, its just an F# with it's minor third (A), rather than it's perfect fifth.
Title: Re: Anaconda cover
Post by: turnacus on October 06, 2008, 11:13:20 PM
Nah the chords ain't no trouble, I'm playing more or less power chords, and doing it on bass.

Thanks for the help though, I'm sure me and my drummer banging it out for an hour will see it down good.  I'm better at reading tabs, but he can feel songs out right good.
Title: Re: Anaconda cover
Post by: norecess on October 07, 2008, 01:54:17 AM
What the hell are you complaining about? I suck at bass and nail this one down easily. The drums on the other hand, that's a complete different story. Good luck to your drummer :)
Title: Re: Anaconda cover
Post by: turnacus on October 07, 2008, 03:14:27 AM
He's pretty good. He's got that syncopated groove that Dale or Brann Dailor or Cody pulls off.

It sucks, because it's hard to write consistent music when he's halfway between groove and solo, but he's damn good.
Title: Re: Anaconda cover
Post by: norecess on October 07, 2008, 03:18:17 AM
It must be nice to be able to jam with someone who can play.

Are you guys just jamming for fun or with the idea to form a band/write music, etc.?
Title: Re: Anaconda cover
Post by: turnacus on October 07, 2008, 04:20:27 AM
We're kinda like the ex girlfriend that you still sometimes fuck.

Back in high school we were a relatively serious band, in that we practiced at certain times after school and had a set of songs. We played a handful of shows, at a high school function, some church function, some girls house at the beach, house shows when our parents split town. We kept playing through like, college as we all went to the same school. (The same school that Gwar and Lamb of God went to, so it has a healthy history of rock)

Then it became a pain to find a place to play.

Now, 5 years later, my friend moved into a place with a studio and instruments so we can rock on.

We took our name after a Melvins album (Colossus of Destiny). Hey, if they took inspiration from a book they liked, we'll take it from a band. We also had a song with a horn and slide bass like the cows.

Shit is tight, I'm pumped as shit to be playing again. Of course, it revisits all the old feuds of having a band, but whatever.



Title: Re: Anaconda cover
Post by: bathroom creep on October 07, 2008, 03:13:59 PM
Also, if the odd sounding chord used through the song is throwing you off, its just an F# with it's minor third (A), rather than it's perfect fifth.

Cool, that's exactly how I play it.  I checked out the version on the wiki and it's quite similar to what I play.

On a related note, I once showed my guitar teacher Bullhead. When Anaconda started he tried really hard to 'get' the beat, and counted, but he couldn't do it.  Instead of listening to the song he was going crazy because of the strange beat.  That was pretty hilarious..   Gotta love the odd timing. 
Title: Re: Anaconda cover
Post by: Michael Jordan on October 07, 2008, 06:29:44 PM
What the hell are you complaining about? I suck at bass and nail this one down easily. The drums on the other hand, that's a complete different story. Good luck to your drummer :)

Dale is a fucking genius to come up with such awesome drums for this song but I think it's not super hard to play. Only part I can't play correctly is on 1:07 and 1:35 when dale goes nuts on the toms and manages to keep rhythm on the ride.

It's one of my favorite songs to play on drums.
Title: Re: Anaconda cover
Post by: Andy Wood on October 08, 2008, 04:33:36 AM
That's what I love about Dale. He seldom plays linear fils, instead completely contorting any syncopation by leaving some notes right out.

I guess it's really the notes he isn't playing that make him great.
Title: Re: Melvins Tabs
Post by: turnacus on October 09, 2008, 05:00:06 AM
The funny thing is, him and Coady both play that syncopated style, yet when they play together, it's not as syncopated.
Title: Re: Melvins Tabs
Post by: kraftwerkd on November 11, 2008, 04:37:19 PM
ah, you all suck for not getting The Talking Horse :lol:

CGCFAD
hit low CG as a big D powerchord, let ring for a split second while the bass plays this.

-G-----------3----3----------
-C--0-3p0-3h5--3h5--5p0-3--5-3-


don't know the fucked up riff Buzz plays at the intro, however for the screeching guitar just slap your hands on the high frets of the F, A, and D strings to get a dissonant sound out of it. for the verse, the rest of the guitar is (after 2nd line of vocal & fucked riff)

-C--0---------6-------------------------------
-G--0---------6-------------------------------
-C--0---------6-----------then play with bass- repeat this again but play fucked up riff


after verse

-C-0
-G-0
-C-0  let ring


groove part

-G-5bend and release and bend, listen to the song-----------

then


-C-7---7s10----10s5------5s7-7-77--7-7-7-777-7-7-77--7-7-7-777
-G-5---5s8-----8s3-------3s5-5-55--5-5-5-555-5-5-55--5-5-5-555


and


-C-7--3-5-3-5--------------------6-66--------------------
-G-5--5-7-5-7-0---3--0-3-0-3-5---6-66-0--0--3--0-3-0-3-5-
-C------------0---3--0-3-0-3-5---6-66-0--0--3--0-3-0-3-5-4x


finally


-C----------------------------------------------0-
-G-3--0-3-0-3-5---3--0-3-0-3-5---3--0-3-5-6-5-3-0-
-C-3--0-3-0-3-5---3--0-3-0-3-5---3--0-3-5-6-5-3-0-


oh, and the Revolve verse riff ends on


-A-1-0-
-D-1-0-
not


-A-3-0-
-D-3-0-


Title: Re: Melvins Tabs
Post by: TJP on December 18, 2008, 06:12:16 AM
Theres been some awesome live melvins stuff put on youtube recently and ive been watching the with teeth ones constantly to try and figure out the guitar and i think this tab might be what is played on bass not guitar! from what i can see buzz just constantly strums the same chord over and over
           
Riff 1 - repeat 9 or 10 times
   1   +   2   +   3   +   4   +     1   +   2   +   3   +   4   +   
e|---------------------------------|---------------------------------|
b|---------------------------------|---------------------------------|
g|---------------------------------|---------------------------------|
d|-5-----------4-----------5-------|-5-----------9-----------5-------|
A|-3-----------2-----------3---0---|-3-----------7-----------3-------|
D|-0-----------0-----------0---0---|-0-----------0-----------0-------|
                     
e|---------------------------------|---------------------------------|
b|---------------------------------|---------------------------------|
g|---------7---------------7-------|-7-----------7-----------7-------|
d|---------7---------------7-------|-7-----------7-----------7-------|
A|---------5-----------0---5---0---|-5-----------5-------0---5---0---|
D|-0-0-0---0-----------0---0---0---|-0-----------0-------0---0---0---|
   x x x
Title: Re: Melvins Tabs
Post by: ninigiku on December 28, 2008, 10:32:28 AM
okay, I dont know much about tuning...

I play C# drop myself (I was told this actually, cause it wasnt until recent that I got a tuning box :lol:)
and when I do that I tune all the strings down , first the string to D# then the rest like when you tune in standard.
then I tune the E string to C#.

that's called "drop D half step down" tuning.
alot of bands i like use that one, breaking benjamin, nirvana, 10 years, evans blue, strata, 30 seconds to mars, deftones
Title: Re: Melvins Tab
Post by: ninigiku on December 28, 2008, 10:46:33 AM
The Bloated Pope

tune down to C

riff 1
-------------------------------------------------------------
-------------------------------------------------------------
-------------------------------------------------------------
------------------------------7-----------------5--------7---
-------------3----------------5-----------------3--------5---
0-0---0---00-1-0-0-0---0---00----0-0-0-0-0-0-0-----0-0-3-----

riff 2
-------------------------------------------------------------
-------------------------------------------------------------
--------------------------------555555--------555555---------
0--0-0--3---3-33-55555556---6-66------6---6-66------6-5-6-3--


you mean tune down all your strings down a whole step to standard D, then drop the big string to a C for "dropped D one whole step down" tuning.. lmfao
i just learned what to call it finally, but its more fun to say "drop C".

all the music on POTRE appears to be in this tuning, thank allah, for this happens to be the tuning my Epiphone les paul is always in!
Title: Re: Melvins Tabs
Post by: erin on December 28, 2008, 10:56:04 AM
I'd like a The Bloat guitar tab but the 'guitar tab' that is supposedly posted is actually the bass tab. Haha.
Title: Re: Melvins Tabs
Post by: ninigiku on December 28, 2008, 10:58:36 AM
I'm pretty sure The Fool, The Meddling Idiot is tuned down to a dropped A. Just like Boris, Koollegged and possibly others.

Das ist correct. One Tool song and some songs and Fugazi: Red Medicine. I love a bit of drop A.

Tool has 3 songs in "dropped B" (BADGBE) or (BEDGBE)... but none lower than that.
(prison sex, parabol & parabola)
Title: Re: Melvins Tabs
Post by: RomanBirdDog on February 24, 2009, 08:44:03 AM
does anyone know the bass tabs to tipping the lion?   or lovely butterfly?  and possibly the savage hippy?   thanks
Title: Re: Melvins Tabs
Post by: norecess on February 24, 2009, 09:01:53 AM
and possibly the savage hippy?

Slide that fucker. Attitude > technique, good luck.
Title: Re: Melvins Tabs
Post by: RomanBirdDog on February 25, 2009, 09:38:53 AM
What notes to slide is the problem.
Title: Re: Melvins Tabs
Post by: erin on March 20, 2009, 11:29:30 AM
is that honey bucket tab right?
Title: Re: Melvins Tabs
Post by: bathroom creep on March 24, 2009, 04:55:10 PM
is that honey bucket tab right?

You mean the one in the wiki? I always felt the main riff in that one isn't all that accurate, but maybe that's just me. I for one play it like that:

A --7--4--7--5--6--0-0-0-0-1-0-1-0-0-0----
D --7--4--7--5--6--0-0-0-0-1-0-1-0-0-0----             etc.
Title: Re: Melvins Tabs
Post by: erin on March 25, 2009, 09:02:40 AM
is that honey bucket tab right?

You mean the one in the wiki? I always felt the main riff in that one isn't all that accurate, but maybe that's just me. I for one play it like that:

A --7--4--7--5--6--0-0-0-0-1-0-1-0-0-0----
D --7--4--7--5--6--0-0-0-0-1-0-1-0-0-0----             etc.
Thank you sooo much! I've been playing the wiki tab all week and trying to figure out what the hell is wrong with it. I'll look at your interpretation after I get out of lecture.  :D
Title: Re: Melvins Tabs
Post by: Green Honey on April 24, 2009, 06:12:42 AM
COTTONMOUTH


Tuning: Drop-D


Play this sequence 2x

 E)------------  ---------- | -------------- |
 B}-/10--------  \8----8--- | -5------------ |
 G)-/12--------  \10---10-- | -7------------ |
 D)-/12--------  \10---10-- | -7------------ |
 A)-/10--------  \8----8--- | -5------------ |
 D)------------  ---------- | -------------- |

 E)------------------------ | -------------- |
 B}------------------------ | -------------- |
 G)-2---------------------- | -7------------ |
 D)-2------5---5---3---3--- | -7------------ |
 A)-0------5---5---3---3--- | -0------------ |
 D)--------5---5---3---3--- | -------------- |


Ending:

 E)--------------------
 B}--------------------
 G)-7---------7---7----
 D)-7---------7---7---- etc
 A)-0---0---0-----0----
 D)--------------------


Tab by greenhoney


Lyrics:

 Mean little stealer you
 Got your head bowed down
 I got a mouth full of cotton
 Duct taped down
 I've been drinking too much Lysol
 and my heads bowed too.
Title: Re: Melvins Tabs
Post by: RyanPlegics on May 30, 2009, 08:27:12 AM
I updated the 5th part of the "Skin Horse" tab on the Wiki.  The notes played should follow the chords of the part before it (C E F C), but played in the following positions:

          B-----5-----
C:      G-----5-----
          D-----5-----

          e-----4-----
E:      B-----5-----
          G-----4-----

          e-----5-----
F:      B-----6-----
          G-----5-----
Title: Re: Melvins Tabs
Post by: Green Honey on July 01, 2009, 07:55:31 AM
THE TALKING HORSE

Riff 1: - Play 2x to begin with

    1       2       3       4        1   +   2   +   3   +   4   +     1       2       3       4    
E||--------------------------------|---------------------------------|------------------------------|
B||--------------------------------|---------------------------------|------------------------------|
G||-9------------------------------|---------------------------------|------------------------------|
D||-9------------------------------|-7-6-7-6-7-6-----------5/4-------|------------------------------|
A||-7------------------------------|-------------7-------7-----5-7-5-|-7----------------------------|
E||-0------------------------------|---------------------------------|------------------------------|

   +       2       3       4         1   +   2   +   3   +   4   +     1       2       3       4         1       2       3       4    
E|---------------------------------|---------------------------------|---------------------------------|------------------------------|
B|---------------------------------|---------------------------------|---------------------------------|------------------------------|
G|-9-------------------------------|---------------------------------|---------------------------------|------------------------------|
D|-9-------------------------------|-7-6-7-6-7-6-----------5/4-------|---------------------------------|------------------------------|
A|-7-------------------------------|-------------7-------7-----5-7-5-|-7-------------------------------|------------------------------|
E|-0-------------------------------|---------------------------------|---------------------------------|------------------------------|

   +       2       3       4         1   +   2   +   3   +   4   +     1       2       3       4   +  
E|---------------------------------|---------------------------------|---------------------------------||
B|---------------------------------|---------------------------------|---------------------------------||
G|-9-------------------------------|---------------------------------|-----------------------------9---||
D|-9-------------------------------|-7-6-7-6-7-6-----------5/4-------|-----------------------------9---||
A|-7-------------------------------|-------------7-------7-----5-7-5-|-7---------------------------7---||
E|-0-------------------------------|---------------------------------|-----------------------------0---||


1st Fill:

E|----------------------------------------|
B|----------------------------------------|
G|-9-------9-------7-------10------7------|
D|-9-------9-------7-------10------7------|
A|-7-------7-------5--------8------5------| After this, play Riff 1 again 1x
E|-0-------0------------------------------|


Then 2nd Fill: (continuing from last bar of Riff 1)

   1   2   3   2   2   3   3   2   3   4   2   3     1       2       3       4        
E|-------------------------------------------------|---------------------------------|
B|-------------------------------------------------|---------------------------------|
G|-------------------------------------------------|---------------------------------|
D|---5\4---------5\4---------5\4---------5\4-------|---------------------------------|
A|-7-----5-7-5-7-----5-7-5-7-----5-7-5-7-----5-7-5-|-7p5-7p5-7p5-7p5-7p5-7p5-7p5-7p5-|
E|-------------------------------------------------|---------------------------------|


Riff 2: - Play 4x

    1       2       3       4         1       2       3       4
E||---------------------------------|---------------------------------||                    
B||---------------------------------|---------------------------------||
G||---------------------------------|---------------------------------||
D||-------------------4-4-4---------|---------------------------------||
A||-------7-7-7-5-5-5-------5-5-4-4-|-----5-5-----4-4-5-5-----5-5-7-7-||
E||-0-0-0---------------------------|-0-0-----0-0---------0-0---------||
[<Palm-Mute...........................................................>]


Bridge:

[Guitar 1]:_______________________________________________________[Guitar 2]:_______________________________________________________

   1       2       3       4       1       2       3       4  
E|--------------------------------------------------------------|  |E|-17-17-17-17-17-17-17-17-17-17-17-17-17-17-16-----------------|
B|--------------------------------------------------------------|  |B|----------------------------------------------17--------------|
G|-2-2-2-2-2-2-2-2-2-2-2-2-2-2-2-0------------------------------|  |G|--------------------------------------------------------------|
D|-2-2-2-2-2-2-2-2-2-2-2-2-2-2-2-0-2----------------------------|  |D|--------------------------------------------------------------|
A|-0-0-0-0-0-0-0-0-0-0-0-0-0-0-0-0-2----------------------------|  |A|--------------------------------------------------------------|
E|---------------------------------0----------------------------|  |E|--------------------------------------------------------------|

Drum fill (Dale)

[Guitar 1]:__________________________________________[Guitar 2]:__________________________________________

   +       2       3       4       1       2    
E|-------------------------------------------------|  |E|-17-17-17-17-17-17-17-16-------------------------|
B|-------------------------------------------------|  |B|-------------------------17----------------------|
G|-2-2-2-2-2-2-2-0---------------------------------|  |G|-------------------------------------------------|
D|-2-2-2-2-2-2-2-0-2-------------------------------|  |D|-------------------------------------------------|
A|-0-0-0-0-0-0-0-0-2-------------------------------|  |B|-------------------------------------------------|
E|-----------------0-------------------------------|  |E|-------------------------------------------------|

Drum fill (Coady)

Riff 3a: - Play 2x

    1     2     3     1     2     3       1     2     3     1     2     3    
E||-------------------------------------|-------------------------------------|
B||-------------------------------------|-------------------------------------|
G||-2--2--2--3--3--3-----------5--5--5--|-3--3--3--2--2--2--8--8--8--7--7--7--|
D||-2--2--2--3--3--3--5--5--5--5--5--5--|-3--3--3--2--2--2--8--8--8--7--7--7--|
A||-0--0--0--1--1--1--5--5--5--3--3--3--|-1--1--1--0--0--0--6--6--6--5--5--5--|
E||-------------------3--3--3-----------|-------------------------------------|

   1     2     3     1    2     3      
E|-------------------------------------||
B|-------------------------------------||
G|-------------------------------------||
D|-7--7--8--8--9-----8--8--9--9--10----||
A|-7--7--8--8--9-----8--8--9--9--10----||
E|-5--5--6--6--7-----6--6--7--7--8-----||

Riff 3b: - Play 2x

    1   2   3   4   1   2   3   4     1   2   3   4   1   2   3   4     1   2   3   4   1   2   3   4     1   2   3   4   1   2   3   4
E||---------------------------------|---------------------------------|---------------------------------|---------------------------------|
B||---------------------------------|---------------------------------|---------------------------------|---------------------------------|
G||-2-2-2-2-2-2-2-2-3-3-3-3-3-3-3-3-|-----------------5-5-5-5-5-5-5-5-|-3-3-3-3-3-3-3-3-2-2-2-2-2-2-2-2-|-8-8-8-8-8-8-8-8-7-7-7-7-7-7-7-7-|
D||-2-2-2-2-2-2-2-2-3-3-3-3-3-3-3-3-|-5-5-5-5-5-5-5-5-5-5-5-5-5-5-5-5-|-3-3-3-3-3-3-3-3-2-2-2-2-2-2-2-2-|-8-8-8-8-8-8-8-8-7-7-7-7-7-7-7-7-|
A||-0-0-0-0-0-0-0-0-1-1-1-1-1-1-1-1-|-5-5-5-5-5-5-5-5-3-3-3-3-3-3-3-3-|-1-1-1-1-1-1-1-1-0-0-0-0-0-0-0-0-|-6-6-6-6-6-6-6-6-5-5-5-5-5-5-5-5-|
E||---------------------------------|-3-3-3-3-3-3-3-3-----------------|---------------------------------|---------------------------------|

   1     2     3     1     2     3      
E|-------------------------------------||
B|-------------------------------------||
G|-------------------------------------||
D|-7--7--8--8--9-----8--8--9--9--10----||
A|-7--7--8--8--9-----8--8--9--9--10----||
E|-5--5--6--6--7-----6--6--7--7--8-----||

Finally, play this last bar again 2x.


End!
Title: Re: Melvins Tabs
Post by: Green Honey on July 03, 2009, 10:50:59 AM
Halo of Flies

 Melvins version (adapted for 1 guitar)

Intro
 e|----------------------------------------------------------------------------------------------------------------
 b|--5-6-5-6-5-6-5-6-5-6-5-6-5-6-5-6-5-6-5-6-5-6-5-6-5-6-5-6-5-6-5-6-5-6-5-6-5-6-5-6-5-6-5-6-5-6-5-6-5-6-5--...etc-
 g|----------------------------------------------------------------------------------------------------------------
 d|----------------------------------------------------------------------------------------------------------------
 a|----------------------------------------------------------------------------------------------------------------
 E|----------------------------------------------------------------------------------------------------------------

 e|----------------------------------------------------------------------------------------------------------------
 b|xx9-8-9-8-9-8-9-xx12-11-12-11-12-11-12-xx15-14-15-14-15-16-15---------------------------------------------------
 g|----------------------------------------------------------------------------------------------------------------
 d|--------------------------------------------------------------x-------------------------------------------------
 a|--------------------------------------------------------------x-7-7-7-7-7-7-7-7-8-8-8-7-8-8-8-7-8-8-8-7-8-7-5-3-
 E|----------------------------------------------------------------------------------------------------------------

 e|--------------------------------|
 b|--------------------------------|
 g|--------------------------------|
 d|-2-R----------------------------|
 a|-2-Ring-------------------------|
 E|-0-R----------------------------|


Riff 1 - play 2x
 e|---------------------------------------------------------------|
 b|---------------------------------------------------------------|
 g|---------------------------------------------------------------|
 d|-7---7-------7---9---9-----9\--3-3-3-----------3---3---5---6---|
 a|-7---7-------7---9---9-----9\--3-3-3-----------3---3---5---6---|
 E|-5-0-5-----0-5-0-7-0-7-----7\--1-1-1-----------1-0-1-0-3-0-4-0-|

Riff 2a - play 1x
 e|-------------------------------------------------------------|
 b|-------------------------------------------------------------|
 g|-------------------------------------------------------------|
 d|------------------------------------2---3---2-1~-----0---1---|
 a|---------------------2---3---0---------------------2---2---2-|
 E|-5----0---7---5-0--------------1-----------------------------|

Riff 2b - play 2x
 e|-------------------------------------------------------------|
 b|-------------------------------------------------------------|
 g|-------------------------------------------------------------|
 d|-2--------0----------0---2---0------2---3---2-1~-----0---1---|
 a|---3-0--------3-2--------------3-------------------2---2---2-|
 E|-------------------------------------------------------------|

Riff 3 (Pre-Verse)
 e|---------------------------------------------------------------------------------------------------------------------
 b|---------------------------------------------------------------------------------------------------------------------
 g|---------------------------------------------------------------------------------------7------7----------------------
 d|-7------7------7------7------7------7------.-.-.-.-.-.-.-.-3------3------3------3------7------7------.-.-.-.-.-.-.-.-
 a|-7--.-.-7--.-.-7--.-.-7--.-.-7--.-.-7--.-.-7-7\6-6\5-5\4-4\3--.-.-3--.-.-3--.-.-3--.-.-5--.-.-5--.-.-5-5\4-4\3-3\2-2\
 E|-5--0-0-5--0-0-5--0-0-5--0-0-5--0-0-5--0-0-----------------1--0-0-1--0-0-1--0-0-1--0-0----0-0----0-0-----------------

 e|-------------------------------------------------------------------------------------------------------------------
 b|-------------------------------------------------------------------------------------------------------------------
 g|---------------------------------------------------------------------------------------7------7--------------------
 d|-7------7------7------7------7------7------.-.-.-.-.-.-.-.-3------3------3------3------7------7------7------7------
 a|-7--.-.-7--.-.-7--.-.-7--.-.-7--.-.-7--.-.-7-7\6-6\5-5\4-4\3--.-.-3--.-.-3--.-.-3--.-.-5--.-.-5--.-.-7--.-.-7--.-.-
 E|-5--0-0-5--0-0-5--0-0-5--0-0-5--0-0-5--0-0-----------------1--0-0-1--0-0-1--0-0-1--0-0----0-0----0-0-5--0-0-5--0-0-

 e|---------------------------------------------------------|
 b|---------------------------------------------------------|
 g|-3------3------3------3------7------7--------------------|
 d|-3------3------3------3------7------7------7------7------|
 a|-3--.-.-3--.-.-3--.-.-3--.-.-5--.-.-5--.-.-7--.-.-7--.-.-|
 E|-1--0-0-1--0-0-1--0-0-1--0-0----0-0----0-0-5--0-0-5--0-0-|
 

Riff 4 (Verse)
 e|---------------------------------|---------------------------------|
 b|---------------------------------|-------------5---7-7-7-8---5-----|
 g|-7-5---5---4~----4---------------|-----4-5---7---------------------|
 d|-----7---------5---7-5-7---7---7-|-5-7-----------------------------|
 a|---------------------------------|---------------------------------|
 E|---------------------------------|---------------------------------|

 e|---------------------------------|---------------------------------|
 b|/8-7-5-7---7---5-----5-----------|-------------5--/8-7-5-7-R-------|
 g|-----------------5-7---7---------|-----4-5---7-----------7-Ring----|
 d|---------------------------7---7-|5-7--------------------5-R-------|
 a|---------------------------------|---------------------------------|
 E|---------------------------------|---------------------------------|
Play that Verse Riff again with these lyrics:
 "I've got the answers to all of you questions
 If you've got the money to pay me in gold
 I will be living in old Monte Carlo
 And you will be reading the secrets I've sold"

Fill 1
 e|-----------------
 b|/5---------------
 g|---7-5-5h7-------
 d|-----------------
 a|-----------------
 E|-----------------

One more Verse:
 "Daggers and contacts and bright shiny limos
 I've got a watch that turns into a lifeboat
 Glimmering nightgowns and poisonous cobras
 Silencer under the heel of my shoe"

Riff 5
 e|---------------------------------|-------------------------------------------------|
 b|---------------------------------|-------------------------------------------------|
 g|-5---5---4-5---7---7-7-7-7-7-7-0-|-5---5---4-5-------.-.-.-.-.-.-.-9-9-9-9-9-9-9-9-|
 d|-5---5---4-5---7---7-7-7-7-7-7-0-|-5---5---4-5---2---2-2-2-2-2-2-2-9-9-9-9-9-9-9-9-|
 a|-3---3---2-3---5---5-5-5-5-5-5-0-|-3---3---2-3---2---2-2-2-2-2-2-2-7-7-7-7-7-7-7-7-|
 E|---------------------------------|---------------0---0-0-0-0-0-0-0-0-0-0-0-0-0-0-0-|

Then back to Riff 3 again 3x with these lyrics:
 "The Elegance of China, they sent her to lie here on her back
  But as she deeply moves me, she'd rather shoot me in my tracks!"

Fill 2
 e|------------------------------------------
 b|------------------------------------------
 g|---------------------7br-5---7--b8------
 d|-----5---7---7br-5------------------------
 a|-7----------------------------------------
 E|------------------------------------------

Bridge
 e|---------------------------------------------------------------|
 b|---------------------------------------------------------------|
 g|---------------------------------------------------------------|
 d|-7-7-7-7-7-7-7-7-7-7-7-7-7-7-7-7-7-7-7-7-7-7-7-7---------------|
 a|-7-7-7-7-7-7-7-7-7-7-7-7-7-7-7-7-7-7-7-7-7-7-7-7-7-7-----------|
 E|-5-5-5-5-5-5-5-5-5-5-5-5-5-5-5-5-5-5-5-5-5-5-5-5-5-5-5-5-..etc-|
 "And while a Middle Asian lady, she really came as no surprise
 But I still did destroy her. And I will smash Halo of...

 ...Flies!"
 e|----------------------|----------------------|
 b|----------------------|---------------- 3x --|
 g|----------------------|-7/9-9-9-9-9-R--------|
 d|-2-R------------------|-7/9-9-9-9-9-R--------|
 a|-2-Ring---------------|-5/7-7-7-7-7-R--------|
 E|-0-R------------------|-----0-0-0-0-R--------|

Riff 6 - play 2.5x
 e|-------------------------------|-------------------------------|
 b|-------------------------------|-------------------------------|
 g|-9----11---12----14----16--19--|9----11---12----14----12----7--|
 d|-9----11---12----14----16--19--|9----11---12----14----12----7--|
 a|-7----9----10----12----14--17\-|7----9----10----12----10----5--|
 E|-------------------------------|-------------------------------|

Riff 7 - play 8x
 e|---------------------------------------------------------------|
 b|---------------------------------------------------------------|
 g|-----.-.---.-.---.---.-.-5---7---.-.---.-.---.---.-.-----------|
 d|-2---2-2-2-2-2-2-2-2-2-2-5---7---2-2-2-2-2-2-2-2-2-2-2-5---7---|
 a|-2---2-2-2-2-2-2-2-2-2-2-3---5---2-2-2-2-2-2-2-2-2-2-2-5---7---|
 E|-0---0-0-0-0-0-0-0-0-0-0---------0-0-0-0-0-0-0-0-0-0-0-3---5---|
 "I crossed the ocean where no one could see
 And I put a time-bomb in your submarine
 Goodbye to old friends, the secret's at hand
 With phony note papers and counterfeit plans
 You never will understand"

Riff 8 - play 3x
 e|--------------------------------------------|-----------------------------------------------|
 b|--------------------------------------------|-----------------------------------------------|
 g|/9--9--9--9--9-7-9-7------------------------|-------------------------------------------7---|
 d|----------------------9--9--9----7-9-10-9-7-|-9--9--9--9----------------------------7-9-----|
 a|--------------------------------------------|-------------8br-7--7-7--7-7---7-7-7-9---------|
 E|--------------------------------------------|-----------------------------------------------|

Repeat Riff 6 2x



to be continued...
Title: Re: Melvins Tabs
Post by: Green Honey on July 03, 2009, 11:04:20 AM
is that honey bucket tab right?

You mean the one in the wiki? I always felt the main riff in that one isn't all that accurate, but maybe that's just me. I for one play it like that:

A --7--4--7--5--6--0-0-0-0-1-0-1-0-0-0----
D --7--4--7--5--6--0-0-0-0-1-0-1-0-0-0----             etc.
Thank you sooo much! I've been playing the wiki tab all week and trying to figure out what the hell is wrong with it. I'll look at your interpretation after I get out of lecture.  :D

http://www.metalkult.com/videos/melvins-lesson (http://www.metalkult.com/videos/melvins-lesson)/
Title: Re: Melvins Tabs
Post by: domokunrox on July 08, 2009, 03:10:59 PM
I made a recent change to the Manky tab on the wiki however I goofed it and saved it when it jarbled. I'm the original creator and is there a way to table it like so on the wiki?
Manky by the Melvins on the Maggot album

   This song is fairly simple if you understand the emphasis and expression of the song. This tab is original and my work alone. E-mail me if you'd like to help work on tabs for this album. ZiggyandGiggy@yahoo.com




Main riff:
E|---------------------------------------------------------
B|---------------------------------------------------------
G|---------------------------------------------------------
D|--0-00-0-00-0-0-0-00--0-00-0-00-0-1-1-1------------------
A|--0-00-0-00-0-0-0-00--0-00-0-00-0-1-1-1------------------
D|--0-00-0-00-0-0-0-00--0-00-0-00-0-1-1-1------------------

PM    ..   ..   . . ..    ..   .. 


After you do that as needed for the lyrics when you get to "but that shit keeps coming round". Depending on if you are playing with 2 guitarists' then have one do the main riff under the the neat little solo or whatever it is.

E|-----------------16-Push-this-up-really-hard--16-16-14-------------------------
B|--------------------and-let-it-down-gently-------------15-14-------------------
G|-------------------------------------------------------------15~--19-19-20/-\--
D|--0-00-0-00-0------------------------------------------------------------------ X4
A|--0-00-0-00-0------------------------------------------------------------------
D|--0-00-0-00-0------------------------------------------------------------------
Title: Re: Melvins Tabs
Post by: Green Honey on July 08, 2009, 06:35:50 PM
Let God Be Your Gardener


Corr. Sep 2009

 
  Drop-D tuning

Part 1:
 
   |6/8
 E-|-------------|-------------|-------------|
 B-|-------------|-------------|-------------|repeat 3x
 G-|-------------|-------------|-------------|
 D-|---6-5---5-4-|---4-3---3-4-|---4-5---5-6-|
 A-|-5-----4-----|-3-----2-----|-3-----4-----|
 D-|-------------|-------------|-------------|
    palm-mute all

                 |4/4
 E-|-------------|-----------------|
 B-|-------------|-----------------|
 G-|-------------|-----------------|
 D-|---6-5---6-5-|-----6-5-----6-5-|
 A-|-5-----5-----|-5-5-----5-5-----|
 D-|-------------|-----------------|
    palm-mute all


Part 2:

   |5/4
 E-|-----------|-----------|-----------|-----------|
 B-|-----------|-----------|-----------|-----------| play
 G-|-7-7-7-6-5-|-7-7-7-6-5-|-6-6-6-5-4-|-5-5-5-4-5-| this
 D-|-7-7-7-6-5-|-7-7-7-6-5-|-6-6-6-5-4-|-5-5-5-4-5-| sequence
 A-|-5-5-5-4-3-|-5-5-5-4-3-|-4-4-4-3-2-|-3-3-3-2-3-| 2x
 D-|-----------|-----------|-----------|-----------|

   |4/4
 E-|-----------------|-----------------|
 B-|-----------------|-----------------|
 G-|-5-5-5-4-5-5-5-4-|-5-5-5-4-5-5-5\--|
 D-|-5-5-5-4-5-5-5-4-|-5-5-5-4-5-5-5\--|
 A-|-3-3-3-2-3-3-3-2-|-3-3-3-2-3-3-3\--|
 D-|-----------------|-----------------|
    palm-mute all


Part 3:

   |4/4
 E-|--------------|-----------------|
 B-|--------------|-----------------|
 G-|--------------|-5-5-5-4-5-5-5\--|
 D-|-3--0-3--0-3--|-5-5-5-4-5-5-5\--|
 A-|-3--0-3--0-3--|-3-3-3-2-3-3-3\--|
 D-|-3--0-3--0-3--|-----------------|
        .    .

   |4/4                                             |2/4
 E-|---------------|----------------|---------------|---------|
 B-|---------------|----------------|---------------|---------|
 G-|---------------|----------------|---------------|-----5---| play
 D-|-3--0-3--0-3-0-|-4-3-0-3~-0-0-0-|-3--0-3--0-3-0-|-4-3-5---| this
 A-|-3--0-3--0-3-0-|-4-3-0-3~-0-0-0-|-3--0-3--0-3-0-|-4-3-3---| 2x
 D-|-3--0-3--0-3-00|-4-3-0-3~-0-0-0-|-3--0-3--0-3-00|-4-3-----|
        .    .   ..           . . .      .    .   ..

Part 4:

   |6/8          | 4/4
 E-|-------------|-----------------|---------------|
 B-|-------------|-----------------|---------------|
 G-|-------------|-----------------|---------------|
 D-|-5-4-3-------|-----------------|---------------|
 A-|-3-2-1-1-2-3-|-4-2-3-4-3-4-3-3-|-4-3-4-3--3--0-|
 D-|-------1-2-3-|-4-2-3-4-3-4-3-3-|-4-3-4-3--3--0-|
                   * * * * * * * *   * * * *  *  *
                           (pinch harmonics)

   |4/4
 E-|-----------------------|-------------------|
 B-|-----------------------|-------------------|
 G-|-----------------------|-------------------|
 D-|-3---3-3-3-3-3-3-3-3-4-|--4---4-4-4-4------|
 A-|-3---3-3-3-3-3-3-3-3-6-|--6---6-6-6-6------|
 D-|-3---3-3-3-3-3-3-3-3-4-|--4---4-4-4-4-/9\--|
           | harmonics |          |harm.|


Part 6 (Verse):

                          |"Knee crawlin' alive & tastin'..."
 E-|----------------------|----------------|----------------|
 B-|----------------------|----------------|----------------|
 G-|----------------------|----------------|----------------| play
 D-|-------3~-----3-------|-3--3--3-3-3-4--|--4-4--4-4------| 3x
 A-|---3---3~-----3---3---|-3--3--3-3-3-6--|--6-6--6-6------|
 D-|-1---2-3~-----3-----2-|-3--3--3-3-3-4--|--4-4--4-4/9\---|
                                  . . .       . .  . .

   |2/4
 E-|---------|
 B-|---------|
 G-|---------|
 D-|-------3-|
 A-|---3---3-|
 D-|-1---2-3-|


Part 7:

 E-|-------------|----------|-------------------|
 B-|-------------|----------|-------------------|
 G-|-------------|----------|-------------------|
 D-|-5-4-3-5-4-3-|2-1-3-2~--|-2---0-1-2-1-3-2-1-|
 A-|-5-4-3-5-4-3-|2-1-3-2~--|-2---0-1-2-1-3-2-1-|
 D-|-5-4-3-5-4-3-|2-1-3-2~--|-2---0-1-2-1-3-2-1-|

 E-|-------------------|-----------|-------------------|
 B-|-------------------|-----------|-------------------|
 G-|-------------------|-----------|-------------------| play
 D-|-5-4-3-5-4-3-5-4-3-|-2-1-3-2~--|-2---0-1-2-1-3-2-1-| 2x
 A-|-5-4-3-5-4-3-5-4-3-|-2-1-3-2~--|-2---0-1-2-1-3-2-1-|
 D-|-5-4-3-5-4-3-5-4-3-|-2-1-3-2~--|-2---0-1-2-1-3-2-1-|
     . . . . . . . . .   . . .

 E-|-----------------|-------------|----------------|
 B-|-----------------|-------------|----------------|
 G-|-----------------|-------------|----------------|
 D-|-2-0-1-2-1-3-2-1-|-1-2-1-3-2-1-|1-2-1-2-1-2-1---|
 A-|-2-0-1-2-1-3-2-1-|-1-2-1-3-2-1-|1-2-1-2-1-2-1---|
 D-|-2-0-1-2-1-3-2-1-|-1-2-1-3-2-1-|1-2-1-2-1-2-1---|


Part 8:

   |4/4
 E-|-----------------------|---------------------|----------|---------------|
 B-|-----------------------|---------------------|----------|---------------|
 G-|-----------------------|---------------------|----------|---------------|
 D-|-2---2-2-2-2-2-2-2-2-3-|--3---3-3-3-3-3------|-------3--|-------7-------|
 A-|-4---4-4-4-4-4-4-4-4-3-|--3---3-3-3-3-3------|---3---3--|---6---7-ring--|
 D-|-2---2-2-2-2-2-2-2-2-3-|--3---3-3-3-3-3/9\---|-1---2-3--|-5---6-7-------|
           | harmonics |          |harm.|   

Part 9

   |6/8
 E-|-------------|-------------|-------------|
 B-|-------------|-------------|-------------|
 G-|-------------|-------------|-------------|
 D-|---6-5---5-4-|---4-3---3-4-|---4-5---5-6-|
 A-|-5-----4-----|-3-----2-----|-3-----4-----|
 D-|-------------|-------------|-------------|
   palm-mute all

The End

Title: Re: Melvins Tabs
Post by: Green Honey on August 28, 2009, 08:15:26 AM
Easy As it Was


Standard tuning


Intro

---------------------------------|-----------------------------------------
---------------------------------|-----------------------------------------
---------------------------------|-----------------------------------------
-4---4---4---4---4---4-4-4---4---|-4---4-4-4---5~-~-~-~-~-~-~-~-~-~-~-~-~--
-4---4---4---4---4---4-4-4---4---|-4---4-4-4---5~-~-~-~-~-~-~-~-~-~-~-~-~--
-2---2---2---2---2---2-2-2---2---|-2---2-2-2---3~-~-~-~-~-~-~-~-~-~-~-~-~--
     .   .   .       . . .   .         . . .

---------------------------------|-----------------------------------------
---------------------------------|-----------------------------------------
---------------------------------|-----------------------------------------
-4---4---4---4---4---4-4-4---4---|-4-------------------------------5---4---
-4---4---4---4---4---4-4-4---4---|-4---3---0---4---3---0---5---4---3---2---
-2---2---2---2---2---2-2-2---2---|-2---1---0---2---1---0---3---2-----------
     .   .   .       . . .   .

---------------------------------|----------------------------------------
---------------------------------|----------------------------------------
---------------------------------|----------------------------------------
-4---4---4---4---4---4-4-4---4---|-----4---4----------------------5---4---
-4---4---4---4---4---4-4-4---4---|-----4---4---4---3---0---5---4--3---2---
-2---2---2---2---2---2-2-2---2---|-----2---2---2---1---0---3---2----------
     .   .   .       . . .

---------------------------------|----------------------------------------
---------------------------------|----------------------------------------
---------------------------------|----------------------------------------
-5---5-----------------------4---|---------------------5~-~-~-~-~-~-~-~-~-
-5---5---8---6---3---4---x---4---|-----4---5---4---0---5~-~-~-~-~-~-~-~-~-
-3---3---6---5---1---2---x---2---|-----2---3---2---0---3~-~-~-~-~-~-~-~-~-

---------------------------------|
---------------------------------|
-~-~-~-~-~-~-~-~-~-~-~-~-~-~-~-~-|
-~-~-~-~-~-~-~-~-~-~-~-~-~-~-~-~-|
-~-~-~-~-~-~-~-~-~-~-~-~-~-~-~-~-|
---------------------------------|


Verse

---------------------------------|----------------------------------------
---------------------------------|----------------------------------------
---------------------------------|----------------------------------------
-4---4---4---4---4---4-4-4---4---|-----4---4----------------------5---4---  4x
-4---4---4---4---4---4-4-4---4---|-----4---4---4---3---0---5---4--3---2---
-2---2---2---2---2---2-2-2---2---|-----2---2---2---1---0---3---2----------
     .   .   .       . . .

Pre-Chorus

---------------------------------|----------------------------------------
---------------------------------|----------------------------------------
---------------------------------|----------------------------------------
-5---5-----------------------4---|-----4---5---4-------5~-~-~-~-~-~-~-~-~-
-5---5---8---6---3---4---x---4---|-----4---5---4---0---5~-~-~-~-~-~-~-~-~-
-3---3---6---5---1---2---x---2---|-----2---3---2---0---3~-~-~-~-~-~-~-~-~-

---------------------------------|
---------------------------------|
-~-~-~-~-~-~-~-~-~-~-~-~-~-~-~-~-|
-~-~-~-~-~-~-~-~-~-~-~-~-~-~-~-~-|
-~-~-~-~-~-~-~-~-~-~-~-~-~-~-~-~-|
---------------------------------|

-----------------
-----------------
-----------------
-5---5---8---6---
-5---5---8---6---
-3---3---6---5---


Chorus

"Come on,                                 give me somethin special..."
---------------------------------|---------------------------------
---------------------------------|---------------------------------
---------2-----------------------|---------2---0-----------6---7---
-2---2---2---2-------------------|-2---2---2---0---4---0---6---7---  4x
-2---2-------2-------------------|-2---2-----------4---0---4---5---
-0---0---------------------------|-0---0---------------------------


Bridge - play 2x

                "Peel   the skin              away from my eyes...
---------------------------------|---------------------------------
---------------------------------|---------------------------------
---------------------------------|---------------------------------
-7---7---7---7---7---7---7---8---|-8---8---8---8-8-8---8---8---7---
-7---7---7---7---7---7---7---8---|-8---8---8---8-8-8---8---8---7---
-5---5---5---5---5---5---5---6---|-6---6---6---6-6-6---6---6---5---
 .   .       .   .   .             .   .       . . .   .

                ...And look in."
---------------------------------|---------------------------------
---------------------------------|---------------------------------
 --------------------------------|---------------------------------
-7---7---7---7-7-7---7---7---8---|-----------------------------x---
-7---7---7---7-7-7---7---7---8---|-----------------------------x---  
-5---5---5---5-5-5---5---5---6---|-----------------------------x---
 .   .       . . .   .

Chorus 4x

Bridge 1x

End.
Title: Re: Melvins Tabs
Post by: Green Honey on September 01, 2009, 02:35:24 PM
here's a corrected version of
Roman Bird Dog/Hung Bunny


updated Sep 2009
 
Tuning: C-G-C-F-A-D

"Hung Bunny"

First get some feedback on this chord:
 |---------
 |---------
 |---------
 |-0-------
 |-0-------
 |-0-------

And play this sequence 4 times:

   1+a2+a3+a4+a+a+1+a2+a3+a4+a+a+1+a2+a3+a4+a+a+1+a2+a3+a4+a+a+1+a2+a3+a4+a+a
 ||---------------------------------------------------------------------------
 ||---------------------------------------------------------------------------
 ||(7)-7--7-/7-----7--7--7-/7-----7--7--7-/7-----7--7--7-/7-----7b-7b-7b-7b---
 ||(7)-7--7-/7-----7--7--7-/7-----7--7--7-/7-----7--7--7-/7-----7b-7b-7b-7b---
 ||(5)-5--5-/5-----5--5--5-/5-----5--5--5-/5-----5--5--5-/5-----5b-5b-5b-5b---
 ||-0--0--0-/0-----0--0--0-/0-----0--0--0-/0-----0--0--0-/0-----0--0--0--0----
  // - At first play this very loosely   -   Improvise the rhythm a little - \\      
  
   1+a2+a3+a4+a+a1+a2+a3+a4+a+a1+a2+a3+a4+a+a1+a2+a3+a4+a+
 |--------------------------------------------------------
 |--------------------------------------------------------
 |-5-----5--5--5--5----5--5b----5-/7---7--7-\-------------
 |-5-----5--5--5--5----5--5b-0--5-/7---7--7-\6------------
 |-3-----3--3--3--3----3--3b-0--3-/5---5--5-\6------------
 |---------------------------0---------0--0--6------------

   1+a2+a3+a4+a1+a1+a2+a3+a4+a1+a1+a2+a3+a4+a1+a1+a2+a3+a4+a+
 |-----------------------------------------------------------||
 |-----------------------------------------------------------||
 |----------------------3-----3--3--3--3----3--3--3b---/7----||
 |-0--0--1--1--1--1b-0--3-----3--3--3--3----3--3--3b-2-/7----||
 |-0--0--1--1--1--1b-0--3-----1--1--1--1----1--1--1b-2-/5----||
 |-0--0--1--1--1--1b-0-------------------------------0--0----||


Then after you've played that 4 times,
instead of playing the last chord, go to the next section.
This is where the drums come in:
 |-----------------------------------------------
 |-----------------------------------------------
 |-5-R-------------------------------------------
 |-5-R--------------------0-R-------------------- play 6x
 |-3-R--------------------0-R--------------------
 |------------------------0-R--------------------

The last chord above is where Dale does the cymbal roll.
After this chord is held for a short time, play the main riff/verse of "Roman Dog Bird", which is as follows:

Play it 8 times first time, 4 times second time:


"Roman Dog Bird"

 |-------------------------------------------------------------------|
 |-------------------------------------------------------------------|
 |-------------------------------------------------------------------|
 |-0-0-0-0-0-0-0-0-0-0-0-1---1---1-0-0-0-0-0-0-0-0-0-0-0-6---6---6---|
 |-0-0-0-0-0-0-0-0-0-0-0-1---1---1-0-0-0-0-0-0-0-0-0-0-0-6---6---6---|
 |-0-0-0-0-0-0-0-0-0-0-0-1---1---1-0-0-0-0-0-0-0-0-0-0-0-6---6---6---|
   . . . . . . . . . . .           . . . . . . . . . . .

"She looks like a well-worn one" part: (skip the last chord above when going into this)
 |---------------------------------|---------------------------------
 |---------------------------------|---------------------------------
 |---------------------------------|---------------------------------
 |-3-----3-----3-3---3-3---1-------|-1-~-----------------------------
 |-3-----3-----3-3---3-3-3-1-3-1-3-|-1-~-----------------------------
 |-3-----3-----3-3---3-3-3---3-1-3-|-1-~-----------------------------

 |---------------------------------|----------------------------------
 |---------------------------------|----------------------------------
 |-------------------------------8-|-7-----------------------5----6-7-
 |-0---0-0-0-0-0-6---6-6-1-6-1-6-8-|-7-0-0-0-0-0-0-6---1-----5----6-7-
 |-0---0-0-0-0-0-6---6-6-1-6-1-6-6-|-5-0-0-0-0-0-0-6---1-----3----4-5-
 |-0---0-0-0-0-0-6---6-6-0-6-0-6---|---0-0-0-0-0-0-6---1--------------
           .   .                       . . . .


                                                   1   2   3   4  
 |---------------------------------|----------------------------------
 |---------------------------------|----------------------------------
 |-------------------------------8-|-7--------------------------------
 |-0---0-0-0-0-0-6---6-6-1-6-1-6-8-|-7-0-0-0-0-0-0-6-R----------------
 |-0---0-0-0-0-0-6---6-6-1-6-1-6-6-|-5-0-0-0-0-0-0-6-R----------------
 |-0---0-0-0-0-0-6---6-6-0-6-0-6---|---0-0-0-0-0-0-6-R----------------
           .   .                       . . . .

   1   2   3   4    1   2   3   4    1   2   3   4    1   2   3   4 +  
 |---------------------------------|--------------------------------------|
 |---------------------------------|--------------------------------------|
 |---------------------------------|--------------------------------------|
 |-1-R-----------------------------|--------------------------------3b\(0)|
 |-1-R-----------------------------|--------------------------------3b\(0)|
 |-1-R-----------------------------|--------------------------------3b\(0)|
 |Just play up to here second time>|

Once you've got this far return to the Verse and play it all again.

Proceed to the next bar:
 |---------------------------------|---------------------------------
 |---------------------------------|---------------------------------
 |---------------------------------|---------------------------------
 |-------------------0-0-0-0-0-1-0-|-----------0-3-0-3-0-3-0-3-0-3-0-
 |-------------------0-0-0-0-0-1-0-|-4-~~------0-3-0-3-0-3-0-3-0-3-0-
 |-12h---12h---0-----0-0-0-0-0-1-0-|-----------0-3-0-3-0-3-0-3-0-3-0-

Outro - Repeat this 5 times:
 |---------------------------------|---------------------------------
 |---------------------------------|---------------------------------
 |-7-----7-----7-----------7-------|-6~------------------------------
 |-7-----7-----7-----0-0-0-7-0-1-0-|-6~--------0-3-0-3-0-3-0-3-0-3-0-
 |-5-----5-----5-----0-0-0-5-0-1-0-|-4~--------0-3-0-3-0-3-0-3-0-3-0-
 |-------------0-----0-0-0-0-0-1-0-|-----------0-3-0-3-0-3-0-3-0-3-0-

Outro - Repeat this 5 times:
 |-----------------------------------------------------
 |-----------------------------------------------------
 |-5-----------------------------/8--------------------
 |-5---------0---------1---------/8--------------------
 |-3---------0---------1---------/6--------------------
 |-----------0---------1-------------------------------

 |--------------------------------------------------------
 |--------------------------------------------------------
 |-7---6-7-6---5~~--4~~--5---6---7------------------------
 |-7---6-7-6-5-5~~--4~~--5---6---7------------------------
 |-5---------5-3~~--2~~--3---4---5------------------------
 |-0-----------------------------0------------------------

End on this
 |--------------------------------|
 |--------------------------------|
 |-7------------------------------|
 |-7------------------------------|
 |-5------------------------------|
 |-0------------------------------|

Build feedback....


 ~ = vibrato      h = natural harmonic   b = bend      / = slide up

 \ = slide down   . =  palm mute         R = let note ring

"Let your amp build up feedback, and voila!
Into Infinity!!"
Title: Re: Melvins Tabs
Post by: bongzilla420 on February 17, 2010, 09:42:01 PM
does anyone have the tab to breakfast on the sly?
Title: Re: Melvins Tabs
Post by: dieselhead99 on April 19, 2010, 04:43:59 AM
And does anyone have "SEE HOW PRETTY, SEE HOW SMART" from The Maggot.
Title: Re: Melvins Tabs
Post by: samo on May 08, 2010, 11:03:11 PM
So this is how I think Electric Flower will sound when 'The Bride Screamed Murder' comes out ;)

This is pretty close, but I know there are a couple of places where I didn't really know.  And I just skipped the rest of the solo because I couldn't hear it through my laptop speakers.  Any feed back or suggestions would be appreiciated.


Song: Electric Flower
Artist: Melvins
Tabbed By: Jamie
Email: xxsamoxx@gmail.com

Intro - PM'd
e-------------------------------------------------------------------------------------|
B-------------------------------------------------------------------------------------|
G-------------------------------------------------------------------------------------|
D---------------0-2-3-2-0---0---------------------------------------------------------|
A--------0-2-3------------3---3-2-0---0---0-2-0---0-3-2-0---0---2---------------------|
E--0-2-3----------------------------3---3-------3---------3---3---3-------------------|


Riff 1
e-------------------------------------------------------------------------------------|
B-------------------------------------------------------------------------------------|
G-------------------------------------------------------------------------------------|
D---------------0-2-0---0-------------------------------------------------------------|
A--------0-2-3--------3---3-2-0---0-3-2-0---0-------0--------0---2--------------------|
E--0-2-3------------------------3---------3---3-2-3---3-2-3----3---3------------------|


Riff 2
e-------------------------------------------------------------------------------------|
B-------------------------------------------------------------------------------------|
G-------------------------------------------------------------------------------------|
D---------------0-2-3-2-0---0---------------------------------------------------------|
A--------0-2-3------------3---3-2-0---0---0-2-0---0-3-2-0---0---2---------------------|
E--0-2-3----------------------------3---3-------3---------3---3---3-------------------|


Riff 3
e-------------------------------------------------------------------------------------|
B-------------------------------------------------------------------------------------|
G-------------------------------------------------------------------------------------|
D--2-2-2-2--2-2-2-2---------------0-2-0---0-------------------------------------------|
A--2-2-2-2--2-2-2-2--------0-2-3--------3---3-2-0-------------------------------------|
E--0-0-0-0--0-0-0-0--0-2-3------------------------------------------------------------|


Riff 4
e-------------------------------------------------------------------------------------|
B-------------------------------------------------------------------------------------|
G-------------------------------------------------------------------------------------|
D--2-2-2-2--2-2-2-2-------------------------------------------------------------------|
A--2-2-2-2--2-2-2-2--------0-2-0---0-3-2-0---0---2------------------------------------|
E--0-0-0-0--0-0-0-0--0-2-3-------3---------3---3---3----------------------------------|


Riff 5
e-------------------------------------------------------------------------------------|
B-------------------------------------------------------------------------------------|
G--------------------5-5-5-5-5-5-----------2-2-2-2-2-2-----------5-----2-----2--2-----|
D--2-2-2-2--2-2-2-2--5-5-5-5-5-5--2-2-2-2--2-2-2-2-2-2--2-2-2-2--5--2--2--2--2--2-----|
A--2-2-2-2--2-2-2-2--3-3-3-3-3-3--2-2-2-2--0-0-0-0-0-0--2-2-2-2--3--2--0--2--0--0-----|
E--0-0-0-0--0-0-0-0---------------0-0-0-0---------------0-0-0-0-----0-----0-----------|


Riff 6
e-------------------------------------------------------------------------------------|
B-------------------------------------------------------------------------------------|
G--5-5-5-5-5-5-----------2-2-2-2-2-2-----------5-----2-----2--2-----------------------|
D--5-5-5-5-5-5--2-2-2-2--2-2-2-2-2-2--2-2-2-2--5--2--2--2--2--2-----------------------|
A--3-3-3-3-3-3--2-2-2-2--0-0-0-0-0-0--2-2-2-2--3--2--0--2--0--0-----------------------|
E---------------0-0-0-0---------------0-0-0-0-----0-----0-----------------------------|


Riff 1
Riff 2
Riff 5
Riff 6


Riff 7
e-------------------------------------------------------------------------------------|
B-------------------------------------------------------------------------------------|
G--5-5-5-----------2-2-2--------------------------------------------------------------|
D--5-5-5---2-2-2---2-2-2--------------------------------------------------------------|
A--3-3-3---2-2-2---0-0-0--------------------------------------------------------------|
E----------0-0-0----------------------------------------------------------------------|


Riff 8 (x2)
 /---------------------------2x--------------------------------\
e---------------------------------------------------------------|---------------------|
B---------------------------------------------------------------|---------------------|
G---------------------------------------------------------------|---------------------|
D---------------------------------------------------------------|--2-----0------------|
A---------------------------------------------------------------|----0-2--------------|
E--0-0-0-0-0-0-0-1-0-0-0-0-0-0-0-3-0-0-0-0-0-0-1-0-0-0-0-0-0-0--|---------------------|
     X X X X X X     X X X X X X     X X   X X     X X X X X X


Riff 9
e-------------------------------------------------------------------------------------|
B-------------------------------------------------------------------------------------|
G--2-2-2-2-2-2--3-3-3-3-3-3-----------------------------------------------------------|
D--2-2-2-2-2-2--3-3-3-3-3-3---5-5-5-5-5-5---------------------------------------------|
A--0-0-0-0-0-0--1-1-1-1-1-1---5-5-5-5-5-5---------------------------------------------|
E-----------------------------3-3-3-3-3-3-2-1-0---------------------------------------|


Riff 8 W/Solo
Riff 8


Solo
e-------------------------------------------------------------------------------------|
B--------------------------/-12-12-12-12-12-12-13-12----------------------------------|
G------------------8------------------------------------------------------------------|
D----------------7---9----------------------------------------------------------------|
A--2--2b4r2--/-9----------------------------------------------------------------------|
E-------------------------------------------------------------------------------------|
   I need to figure the rest of the solo out,
         I am having trouble hearing what Buzz is doing exactly


Riff 8
Riff 8


Outro
e-------------------------------------------------------------------------------------|
B-------------------------------------------------------------------------------------|
G--2-2-2-2-2-2--3-3-3-3-3-3-----------------5-5-5-4-4-4-------------------------------|
D--2-2-2-2-2-2--3-3-3-3-3-3---5-5-5-5-5-5---5-5-5-4-4-4-------------------------------|
A--0-0-0-0-0-0--1-1-1-1-1-1---5-5-5-5-5-5---3-3-3-2-2-2-------------------------------|
E-----------------------------3-3-3-3-3-3---------------------------------------------|

e-------------------------------------------------------------------------------------|
B-------------------------------------------------------------------------------------|
G-------------------------------------------------------------------------------------|
D--5-2--------------------------------------------------------------------------------|
A--5-2--------------------------------------------------------------------------------|
E--3-0----3-0-1-0-3-0-1-0-3-0-1-0---0-0-----------------------------------------------|
Title: Re: Melvins Tabs
Post by: dead_inside on May 11, 2010, 07:33:10 PM
hi melvins people

I'm curently trying to nail the evil new war god song (awesome name) and I need someone to help me with the second riff. The tuning is down to C so I'm having trouble identifying anything.
I tabbed the rest, it was pretty easy but this is my first one so tell me if I did something wrong.

and thanks for electric flower
this album rocks


Song: Evil New War God
Artist: Melvins
Tabbed By: Wa'hm


c---------------------------------------------------------------------------------------------|
G---------------------------------------------------------------------------------------------|
Eb-------99-X-12-1212-XX-1111-X-79------7------10---------------------------------------------|
Bb-------99-X-12-1212-XX-1111-X-79------7------10---------------------------------------------|
F--------77-X-10-1010-XX-9-9--X-57------5-------8---------------------------------------------|
C----------------------------------0000---00000-----------------------------------------------|
                                    PM      PM



RIFF#1
c---------------------------------------------------------------------------------------------|
G---------------------------------------------------------------------------------------------|
Eb--------99-X-121212-XX-1111-X--79------7-------10/9-----------------------------------------|
Bb--------99-X-121212-XX-1111-X--79------7-------10/9-----------------------------------------|
F---------77-X-101010-XX-9-9--X--57------5-------8-/7-----------------------------------------|
C----------------------------------0000---00000-----------------------------------------------|
                                    PM      PM

Riff#2
c---------------------------------------------------------------------------------------------|
G---------------------------------------------------------------------------------------------|
Eb-------------------------------------???????------------------------------------------------|
Bb--------------------------------------------------------------------------------------------|
F---------------------------------------------------------------------------------------------|
C---------------------------------------------------------------------------------------------|

RIFF"1
RIFF#2
RIFF#1
RIFF#2
RIFF#1


RIFF#3 - PM'd
c---------------------------------------------------------------------------------------------|
G---------------------------------------------------------------------------------------------|
Eb--------------------------------------------------------------------------------------------|
Bb--------------------------------------------------------------------------------------------|
F---------------------------------------------------------------------------------------------|
C--------0-0-0-3-3-3-5-5-5-3-3-3-5-5-3-3-6-6-6-5-5-5-0-0-3-3-5-5-0-0-3-3-0--------------------|


SOLO - w/ delay
c----------------------------------------/19------18-19~~-------------------------------------|
G---X~~~~~~~~~~~~~---------------------------19^----------------------------------------------|
Eb--X~~~~~~~~~~~~~-----7-9---7-9^-------------------------------------------------------------|
Bb--------------------------------------------------------------------------------------------|
F---------------------------------------------------------------------------------------------|
C---------------------------------------------------------------------------------------------|

RIFF#4
c---------------------------------------------------------------------------------------------|
G---------------------------------------------------------------------------------------------|
Eb--------77-X-9-9999-XX-54-X-10-10101010-----------------------------------------------------|
Bb--------77-X-9-9999-XX-54-X-10-10101010-----------------------------------------------------|
F---------55-X-7-7777-XX-32-X-8--8-8-8-8------------------------------------------------------|
C---------------------------------------------------------------------------------------------|



RIFF#3 x4
RIFF#4
RIFF#3 x4
RIFF#4


3:08

RIFF#5
c---------------------------------------------------------------------------------------------|
G---------------------------------------------------------------------------------------------|
Eb--------------------------------------------------------------------------------------------|
Bb--------------------------------------------------------------------------------------------|
F-----------------------------------------------------------------------------------------|
C----------0~7~~6/7/6~~~~~3-5-3-5/4~------------------------------------------------------|  x2


OUTRO - PM-d
c------------------------------------------------------------------------------------------------|
G------------------------------------------------------------------------------------------------|
Eb-----------------------------------------------------------------------------------------------|
Bb--------222---2---22---2---222---2---22---2---222----------------------------------------------|
F---------222---2---22---2---222---2---22---2---222----------------------------------------------|
C---------000---0---00---0---000---0---00---0---000----------------------------------------------|


RIFF#5 x2




Title: Re: Melvins Tabs
Post by: samo on May 12, 2010, 07:42:58 PM
Cool, I was going to try this song or pig house this weekend.  I will check out that 2nd riff when I get home.  I should be getting my headphones back too, so maybe I can actually figure out the electric flower solo (shitty laptop speakers + delay + mp3 = jibberish to me)

Did you take a look at my electric flower tab?  How accurate did it sound to you?


Edit:  I threw your tab up on the wiki http://www.themelvins.net/wiki/index.php?title=Evil_New_War_God (http://www.themelvins.net/wiki/index.php?title=Evil_New_War_God) check it out make sure it looks good to ya, I had to put dashes between the '~'s for wiki formating.
Title: Re: Melvins Tabs
Post by: dead_inside on May 13, 2010, 12:19:38 PM
Cool, I was going to try this song or pig house this weekend.  I will check out that 2nd riff when I get home.  I should be getting my headphones back too, so maybe I can actually figure out the electric flower solo (shitty laptop speakers + delay + mp3 = jibberish to me)

Did you take a look at my electric flower tab?  How accurate did it sound to you?

yeah the 1rst minute is a little long to memorise for me but the rest is cool and easy to play

it should more look like this I think

Riff 9
e-------------------------------------------------------------------------------------|
B-------------------------------------------------------------------------------------|
G--2-2-2-2-2-2--3-3-3-3-3-3-----------------------------------------------------------|
D--2-2-2-2-2-2--3-3-3-3-3-3---5-5-5-5-5-5---5-5-5-4-4-4-3-3-3-------------------------|
A--0-0-0-0-0-0--1-1-1-1-1-1---5-5-5-5-5-5---5-5-5-4-4-4-3-3-3-------------------------|
E-----------------------------3-3-3-3-3-3---3-3-3-2-2-2-1-1-1-------------------------|


Riff 8 W/Solo


Solo
e-------------------------------------------------------------------------------------|
B------------------8-------/-12-12-12-12-12-12-13-12----------------------------------|
G----------------7---9----------------------------------------------------------------|
D-------------/9----------------------------------------------------------------------|
A----7b9r7----------------------------------------------------------------------------|
E--0----------------------------------------------------------------------------------|

maybe with one of these two bits twice at the end, played really fast

e-------------------------------------------------------------------------------------|
B----------12-15------------------------OR-------12-15\\\\\\\\\\\\\\3-5^^^^^^^--------|
G----------------12-14----------------------------------------------------------------|
D----------------------12-14^^^^^^^^--------------------------------------------------|
A-------------------------------------------------------------------------------------|
E-------------------------------------------------------------------------------------|


Riff 10
e-------------------------------------------------------------------------------------|
B-------------------------------------------------------------------------------------|
G--2-2-2-2-2-2--3-3-3-3-3-3-----------------5-5-5-3-3-3-------------------------------|
D--2-2-2-2-2-2--3-3-3-3-3-3---5-5-5-5-5-5---5-5-5-3-3-3-------------------------------|
A--0-0-0-0-0-0--1-1-1-1-1-1---5-5-5-5-5-5---3-3-3-1-1-1-------------------------------|
E-----------------------------3-3-3-3-3-3---------------------------------------------|

Riff 8
RIFF 10


Outro
e---------------------------------x3|--------------------------------------------------|
B-----------------------------------|--------------------------------------------------|
G-----------------------------------|--------------------------------------------------|
D--2-2------------------------------|---2-2--------------------------------------------|
A--2-2------------------------------|---2-2--------------------------------------------|
E--0-0----3-0-1-0-3-0-1-0-3-0-1-0---|---0-0--------------------------------------------|






Edit:  I threw your tab up on the wiki http://www.themelvins.net/wiki/index.php?title=Evil_New_War_God (http://www.themelvins.net/wiki/index.php?title=Evil_New_War_God) check it out make sure it looks good to ya, I had to put dashes between the '~'s for wiki formating.

cool, there are a few little mistakes though can I edit it somewhere or should I correct the one above?
Title: Re: Melvins Tabs
Post by: samo on May 13, 2010, 02:21:26 PM
Awesome, thanks for looking at my tab!  Yeah if you log in to the wiki you can edit it right there.
Title: Re: Melvins Tabs
Post by: flyinghouses on May 14, 2010, 09:55:05 AM
Does anyone know of tab notes for the drum solo on the first track of HAT? I'm trying to play that and have not been able to find anything. Any help appreciated.
Title: Re: Melvins Tabs
Post by: Skinhorse on June 08, 2010, 10:30:03 AM
Hello all! I've been trying to nail down the Honeybucket tab based on http://www.metalkult.com/videos/melvins-lesson/ (http://www.metalkult.com/videos/melvins-lesson/) and was wondering in particular about the little run down part that Buzz does after the D# (i.e. the last 10 notes of my tab). Does the following look/sound correct to you fellow guitarists?

e-----------------------------------------------------------------------------------|
b-----------------------------------------------------------------------------------|
g-----------------------------------------------------------------------------------|
d-----------------------------------------------------------------------------------|
a--7--4--7--5--6p--0--0--0--0--1--0--1--0--1--0--0--7--4--7--5--|
D--7--4--7--5--6p--0--0--0--0--1--0--1--0--1--0--0--7--4--7--5--|
 
e-----------------------------------------------------------------------------------|
b-----------------------------------------------------------------------------------|
g-----------------------------------------------------------------------------------|
d-----------------------------------------------------------------------------------|
a--6p--0--0--0--0--1--0--1--0--1--0--0--7--4--7--5--0----0--1--0|
D--6p--0--0--0--0--1--0--1--0--1--0--0--7--4--7--5--0----0--1--0|
 
e-----------------------------------------------------------------------------------------------------|
b-----------------------------------------------------------------------------------------------------|
g--8-------8--8--8--8--8--8--8----------------------------------------------------------------|
d--8-------8--8--8--8--8--8--8----------------------------------------------------------------|
a--6-------6--6--6--6--6--6--6------0----0--1--0------6--5-----5-----------------3----------|
D------------------------------------------0----0--1--0-------------6-----6--5--3--5-----5-------|
Title: Re: Melvins Tabs
Post by: endsjustifymeans on June 09, 2010, 01:01:01 PM
I did a search but couldn't find it. Has anyone gotten a decent tab for annum?
Title: Re: Melvins Tabs
Post by: MrLuck87 on June 12, 2010, 12:36:47 AM
Does anyone know of tab notes for the drum solo on the first track of HAT? I'm trying to play that and have not been able to find anything. Any help appreciated.

Just listen to the bass drum and snare.  Get that beat down before adding the hi hat.  I really would not know how to go about tabbing out something for drums.
Title: Re: Melvins Tabs
Post by: Dumpster D on June 28, 2010, 06:26:19 PM
Right hand snare!!!

remember sometimes to go right hand snare, then LEFT on the tom, like grinding process (sort of) as you cross over to the floor tom.

Title: Re: Melvins Tabs
Post by: theamazingkort on October 06, 2010, 04:49:20 PM
hey there dead inside guy. War god isn't in C, it's in standard drop d.

Try again.
Title: Re: Melvins Tabs
Post by: hellalive on October 30, 2010, 07:38:15 AM
War god it's in dropped C. I tabbed it like this (main riff with the help of friend), not structure only the riffs


Code: [Select]
Drop C

F 7 7 x 10  10 10 10 10  10 10 xx 9 9 xx 5 7 xxxx 5 8
C 7 7 x 8   8  8  8  8   8  8  xx 9 9 xx 5 7 xxxx 5 8
G 5 5 x 8   8  8  8  8   8  8  xx 7 7 xx 3 5 xxxx 3 6
C

C                    3    5
G 0         0h5      3    5    0h5
C 0 00 0 00     0000 3 00 5 00     00 0h5 00
    pm   --     ----   --   --     --     --

C                        3    5
G /5     0h5             3    5    0h5             X2
C    0h7     00 0h5 0000 3 00 5 00     00 0h5 00
             pm     ----   --   --     --     --

C
G
C 0-0-0-3-3-3-5-5-5-3-3-3-5-5-3-3-6-6-6-5-5-0-0-3-3-5-5-3-3-5-5-
all pm

Solo

D         //17b   16  16 17b
A       7b          17 
F 5-7-5-7b
C
 
F 5 5 x 7  7 7 7 7  7 7 xx 3 3 2 2  8
C 5 5 x 7  7 7 7 7  7 7 xx 3 3 2 2  8
G 3 3 x 5  5 5 5 5  5 5 xx 1 1 0 0  6
C

C
G
C 0  7b  6h76  3 5 3 5 4

Then just this chord

C 0
G 0
C 0

This number of times:

3 - 1 - 2 - 1 - 3 - 1 - 2 - 1 - 3

Like "dun dun dun" etc

--Thanks sideffect


It should be right, i've got electric flower too and i'm working on hospital up. If you wish i can post too
Title: Re: Melvins Tabs
Post by: acid policy on December 08, 2010, 10:26:13 AM
you can post hospital up? do it!
Title: Re: Melvins Tabs
Post by: Buzzinthebox on February 20, 2011, 03:48:03 PM
Here is the correct intro to Sky Pup, was bored and thought it ought to be shared. Enjoy



-------------------------------------------------------------------------|
-------------------------------------------------------------------------|
-------------------------------------------------------------------------|
------------5-----------------------------------------------------------|
-------4-------3--4--5--0------3--4------3--4-------------------|
-3-----------------------------2----------2----------2--0-----------|



-------------------------------------------------------------------------|
-------------------------------------------------------------------------|
-------------------------------------------------------------------------|
-------------5----------------------------------------------------------|
-------4-------3--4--5-----------------------------------------------|
-3------------------------3--0----------------------------------------|
Title: Re: Melvins Tabs
Post by: anaconda on June 04, 2011, 10:12:17 PM
I'd like to see Hospital Up tabbed as well
Title: Re: Melvins Tabs
Post by: Metalhead Cow on June 28, 2011, 01:33:42 AM
Maybe I'll get around to tabbing Hospital Up soon
Title: Re: Melvins Tabs
Post by: Dumpster D on August 21, 2011, 09:36:00 PM
Just thought i'd mention that those sneaky melvins have been known to tune to D# on occaision.

one day for no reason, I figured out how to play pearl bomb last year, (houdini live version) in like 5 minutes, god Buzz is so subtle with those chops!

another really clever slight of hand is the intro to mombius hibachi.

In my ever so humble opinion, your ears will eventually guide you faster than using tabs ever will.

I think tried  tabs once, and they were a total waste of paper and time, I think I got better once I tried to play along to GPT just to get the "feel" of Buzz' stlye (this was like 10 years ago now)

now SINGING as good as the melvins, no matter what...there are no tabs to help you there.

...and by the way, who is the best guitar player on this forum out of curiousity??!?!??
Title: Re: Melvins Tabs
Post by: DC on August 21, 2011, 10:14:22 PM
Probably TommyHC.


 :(
Title: Re: Melvins Tabs
Post by: WGB on November 29, 2011, 06:28:46 AM
I don't think I know that song.
Title: Re: Melvins Tabs
Post by: Metalhead Cow on March 26, 2012, 10:19:00 PM
Just thought i'd mention that those sneaky melvins have been known to tune to D# on occaision.



Hmmm... I'm not sure I believe you... What songs?
Title: Re: Melvins Tabs
Post by: DC on March 26, 2012, 10:41:25 PM
Just thought i'd mention that those sneaky melvins have been known to tune to D# on occaision.



Hmmm... I'm not sure I believe you... What songs?
grinding process is half step down. well, you can play it in drop d too I guess.
Title: Re: Melvins Tabs
Post by: Dumpster D on March 27, 2012, 12:13:17 AM
Just thought i'd mention that those sneaky melvins have been known to tune to D# on occaision.



Hmmm... I'm not sure I believe you... What songs?
grinding process is half step down. well, you can play it in drop d too I guess.


"you use guitar tabs"

That should be an Anal cunt song!!!

 :lol:
Title: Re: Melvins Tabs
Post by: spliff(TONE) on June 06, 2012, 01:31:58 PM
Can anyone recommend a good application for writing one's own tabs? Figured out 'A Growing Disgust' by ear the other day (along with 'Honey Bucket') and it is pretty glorious to play. Would be more than willing to transcribe it for you guys if anyone can point me in the right direction.

Thanks.
Title: Re: Melvins Tabs
Post by: MrLuck87 on June 14, 2012, 04:32:02 PM
Can anyone recommend a good application for writing one's own tabs? Figured out 'A Growing Disgust' by ear the other day (along with 'Honey Bucket') and it is pretty glorious to play. Would be more than willing to transcribe it for you guys if anyone can point me in the right direction.

Thanks.

This looks easy to use:  http://www.guitartabcreator.com/ (http://www.guitartabcreator.com/)

I would appreciate the tab!  I often try to figure out things by ear but I don't have an amp at the moment and a tab could at least help with muscle memory.
Title: Re: Melvins Tabs
Post by: spliff(TONE) on June 14, 2012, 05:21:08 PM
Am I missing something? That's just a link to this same page....not too helpful. If this isn't a mistake, maybe I should just post a YouTube video of myself playing it....
Title: Re: Melvins Tabs
Post by: MrLuck87 on June 14, 2012, 05:49:31 PM
Am I missing something? That's just a link to this same page....not too helpful. If this isn't a mistake, maybe I should just post a YouTube video of myself playing it....

Whoops, I posted the wrong link.  Fixed.
Title: Re: Melvins Tabs
Post by: Metalhead Cow on June 17, 2012, 08:28:26 PM
Am I missing something? That's just a link to this same page....not too helpful. If this isn't a mistake, maybe I should just post a YouTube video of myself playing it....

Whoops, I posted the wrong link.  Fixed.

Thanks for posting that link. I tried posting some tabs back when Senile came out-I wasn't using any tab program, and the tabs never came out any good. I'll try that link and hopefully post some tabs also.
Title: Re: Melvins Tabs
Post by: Harry Krishna on September 05, 2012, 08:36:04 PM
Anyone tabbed 'The War on Wisdom"? really digging that song
Title: Re: Melvins Tabs
Post by: acid policy on October 18, 2012, 08:48:43 AM
didnt do the end yet

civilized worm
standard tuning

main riff
-------------------------------------------------------------------
-------------------------------------------------------------------
-------------------------------------------------------------0-----
-2--2xx2--2--22xx24-7-x4--4--44xx42x2-x2--2--2-22xxxx99-9-x0-------
-2--2xx4--4--44xx46-5-x4--4--44xx42x2-x4--4--4-44xxxx77-7-x-7-76---
-0---xx2-----00xx-----x0-----00xx--x0-x0-----0-00xxxx-----x--------
  >     >         /     >         \     >     >                 \

               ^                                ^
               |                                |
               |   this part repeats sometimes  |
               |                                |

last part before the breaks:
-------------------------------------------------------------------
-------------------------------------------------------------------
-------------------------------------------------------------------
-2--2xx2--2--22xx24-7-x4--4--44xx42x2-x2--2--2-222-----------------
-2--2xx4--4--44xx46-5-x4--4--44xx42x2-x4--4--4-442-----------------
-0---xx2-----00xx-----x0-----00xx--x0-x0-----0-000-----------------
  >     >         /     >         \     >     >   >

2:10
-------------------------------------------------
----9--9--9--9-----------------------------------
-9----9--9--9--9----7--6--7-676-676-9--9--9--9-9-
-----------------0-------------7---7-------------
-------------------------------------------------
-------------------------------------------------
  >  >  >  >  > > >  >  >  >HHH   H  >  >V V  V

2:22
---------------------------------------------------------
---------------------------------------------------------
-9-9-101011111212131314141515161617171818191920202121222-
-9-9-101011111212131314141515161617171818191920202121222-
---------------------------------------------------------
---------------------------------------------------------


V vibrato
H hammer
> hold
\ slide down
/ slide up
Title: Re: Melvins Tabs
Post by: bedlam120 on November 05, 2012, 05:02:27 PM
Dont know if this has been posted but I learned how to play We Are Doomed watching this guys

http://youtu.be/_fRaTOEiREA (http://youtu.be/_fRaTOEiREA)

all credit goes to him. His screen name is DogCowFrog. Enjoy.
Title: Re: Melvins Tabs
Post by: black stallion on November 06, 2012, 05:59:03 AM
Dont know if this has been posted but I learned how to play We Are Doomed watching this guys

http://youtu.be/_fRaTOEiREA (http://youtu.be/_fRaTOEiREA)

all credit goes to him. His screen name is DogCowFrog. Enjoy.
I don't play myself but i'd say he's pretty good.

he is!
Title: Re: Melvins Tabs
Post by: bedlam120 on November 17, 2012, 04:00:13 PM
Dont know if this has been posted but I learned how to play We Are Doomed watching this guys

http://youtu.be/_fRaTOEiREA (http://youtu.be/_fRaTOEiREA)

all credit goes to him. His screen name is DogCowFrog. Enjoy.
I don't play myself but i'd say he's pretty good.

he is!

Yup this guy is the shit. He also does war on wisdom, its not dead on but its close enough to where if you fiddle around with it maybe you can improve on it a little.
Title: Re: Melvins Tabs
Post by: Metalhead Cow on November 30, 2012, 08:30:41 PM
Hey, thanks guys! :D
Title: Re: Melvins Tabs
Post by: black stallion on December 01, 2012, 03:21:08 AM
Hey, thanks guys! :D

now play Dr Geek  :-"
Title: Re: Melvins Tabs
Post by: acid policy on March 29, 2013, 09:42:05 AM
edit: shit tab, see better one in below post
Title: Re: Melvins Tabs
Post by: Vcavallo on March 29, 2013, 05:03:31 PM
Hey, thanks guys! :D

now play Dr Geek  :-"

I assume he's working on this still... I want to hear it!
Title: Re: Melvins Tabs
Post by: Metalhead Cow on April 04, 2013, 08:34:45 PM
Hey, thanks guys! :D

now play Dr Geek  :-"

I assume he's working on this still... I want to hear it!

Actually... I've never tried to learn that song.   :-" I'll learn it eventually. It's one of my favorite Melvins songs.
Title: Re: Melvins Tabs
Post by: Metalhead Cow on April 04, 2013, 08:36:34 PM
National Hamster

Dropped-D Tuning

------------------------------------------------
------------------------------------------------
------------------------------------------------
2-2---0---------------3---3-3-----0-2-----------    three times
0-0---0-----------0-----------0-3-----0---0-0---
2-2---0---------0---0---------------------------

------------------------------------------------
------------------------------------------------
------------------------------------------------
2-2---0---5---4---4-4---4---4---3---3-3-3---3---
0-0---0---3---2---2-2---2---2---1---1-1-1---1---
2-2---0---5---4---4-4---4---4---3---3-3-3---3---
                                                    ____
------------------------------------------------        |
------------------------------------------------        |
------------------------------------------------        |
------3---3-3-----0-2-----------2-2---0---0-0---        |
--0-----------0-3-----0---0-0---0-0---0---0-0---        |
0---0---------------------------2-2---0---0-0---        | 
                                                        | - twice
------------------------                                |
------------------------                                |
------------------------                                |
5---0---2---0---2---5---                                |
5---0---2---0---2---5---                                |
5---0---2---0---2---5---                            ____|

                                                   
------------------------------------------------       
------------------------------------------------       
------------------------------------------------       
------3---3-3-----0-2-----------2-2---0---5---4-       
--0-----------0-3-----0---0-0---0-0---0---3---2-       
0---0---------------------------2-2---0---5---4-       
                                                       
------------------------------                               
------------------------------                               
------------------------------                               
--4-4-4-4-4-4-3-3-3-3-3-3-3-3-                         
--2-2-2-2-2-2-1-1-1-1-1-1-1-1-                           
--4-4-4-4-4-4-3-3-3-3-3-3-3-3-                       

part b
------------------------------------------------------------------
------------------------------------------------------------------
------------------------------------------------------------------
----0-----0---3-----3-----3---2-----2-----2---1-----1-----1---0---
------------------------------------------------------------------
0-0---0-0---0-----0---0-0---0-----0---0-0---0-----0---0-0---0-----

------------------------------------------------------------------
------------------------------------------------------------------
------------------------------------------------------------------
--0-----0---3-----3-----3---2-----2-----2---1-----1-----1---0-0-0-
------------------------------------------------------------0-0-0-
0---0-0---0-----0---0-0---0-----0---0-0---0-----0---0-0---0-------

----------------------------------------------------------------
----------------------------------------------------------------
----------------------------------------------------------------
0-XXX-0---3-----3-xxx-3---2-----2-XXX-2---1-----1-XXX-1---0----- twice
0-XXX-0---3-----3-xxx-3---2-----2-XXX-2---1-----1-XXX-1---0-----
----------------------------------------------------------------

----------------------------------------------------------
----------------------------------------------------------
----------------------------------------------------------
0-XXX-0---3-----3-xxx-3---2-----2-XXX-2---1-----1-XXX-1---
0-XXX-0---3-----3-xxx-3---2-----2-XXX-2---1-----1-XXX-1---
----------------------------------------------------------

--------------------------------
--------------------------------
--------------------------------
2---2-2-2-2-2-x-0---0-0-0-0-0-0-
0---0-0-0-0-0-x-0---0-0-0-0-0-0-
2---2-2-2-2-2-x-0---0-0-0-0-0-0-

go back to part b and repeat from there, then:
                                                __
------------------------------------              |
--------------------------------3---              |
------------------------2-------2---              |
0---0-2---3---0-2-3-x-x-2---0-x-----              |
0---0-2---3---0-2-3-x-x-----0-x-----              |
------------------------------------              |
                                                  | - twice
----------------------------                      |
----------------------------                      |
----------------------------                      |
0-2-5-3-0-2-0-3-0-2-5---3---                      |
0-2-5-3-0-2-0-3-0-2-5---3---                      |
----------------------------                    __|

---------------------------------
---------------------------------
-5---5---------------------------
-5---5-6-------------------------
-------6-------------------------
---------------------------------

------------------------------------------------------------------
------------------------------------------------------------------
-8---8------------------------------------------------------------
-8---8-9-------------------------7--------------------------------
-------9-------------------------7--------------------------------
------------------------------------------------------------------
                                              __
------------------------------------            |
------------------------------------            |
------------------------------------            |
--------------------------------2---            |
------------------------2-----------            |
2---2-4---5---2-4-5-x-x-----2-x-----            |
                                                | - twice
--------------------------------------------    |
--------------------------------------------    |
--------------------------------------------    |
--------------------------------------------    |
----0---------------0-------3-------0-------    |
2-4---5-2-4-2-5-2-4-----5-------5-------5---  __|
                                              __
------------------------------------            |
------------------------------------            |
------------------------------------            |
--------------------------------2---            |
------------------------2-----------            |
2---2-4---5---2-4-5-x-x-----2-x-----            |
                                                | - three times
----------------------------                    |
----------------------------                    |
----------------------------                    |
----------------------------                    |
----0---------------0-------                    |
2-4---5-2-4-2-5-2-4-----5---                  __|

---------------------------------
---------------------------------
-5---5---------------------------
-5---5-6-------------------------
-------6-------------------------
---------------------------------

------------------------------------------------------------------
------------------------------------------------------------------
-8---8------------------------------------------------------------
-8---8-9-------------------------7--------------------------------
-------9-------------------------7--------------------------------
------------------------------------------------------------------





Hey man, don't take this the wrong way... but this tab is way wrong.
Title: Re: Melvins Tabs
Post by: acid policy on April 05, 2013, 09:42:05 AM

Hey man, don't take this the wrong way... but this tab is way wrong.

any pointers?
Title: Re: Melvins Tabs
Post by: Metalhead Cow on April 10, 2013, 08:24:54 PM

Hey man, don't take this the wrong way... but this tab is way wrong.

any pointers?

It's in standard tuning, not drop D, and I think at times you're over thinking some of the chords-most of them are just power chords. I think you're on the right track with hearing where the notes go, and recognizing the patterns and such. I think if you listen to the track and compare it with your tab, you'll realize that the notes you tabbed will often sound lower  than what it's supposed to be. I'll see if I can post a tab within the next few days of how I think the song goes. I recorded a cover of the song, so maybe this can help in the meantime:  :)

Melvins-National Hamster guitar cover (http://www.youtube.com/watch?v=fCLqILcxqvQ#ws)
Title: Re: Melvins Tabs
Post by: acid policy on April 25, 2013, 08:24:51 AM
cool thanks man. sounds good. you use a compressor? im gonna try to figure out how you played it one of these days, when i do i'll fix my tab up, if you dont tab it first.
Title: Re: Melvins Tabs
Post by: acid policy on May 13, 2013, 07:13:57 AM
National Hamster

Standard Tuning

------------------------------------------------
------------------------------------------------
------2-----------------------------------------
5-5---2-----------2---3---3-3-----0-2-----------    three times
5-5---0---------0---0---------0-3-----0---0-0---
3-3---------------------------------------------

------------------------------------------------
------------------------------------------------
------2-----------------------------------------
5-5---2---5---3---3-3---3---3-xx2---2-2-2---2---
5-5---0---5---3---3-3---3---3-xx2---2-2-2---2---
3-3-------3---1---1-1---1---1-xx0---0-0-0---0---

                                  ____________________
-------------------------------                       |
-------------------------------                       |
-------------0---0-------------                       |
-3---3-3---3------32---2---2---                       |
-------------------------------                       |
-------------------------------                       |
                                                      |-2nd guitar/track
------------------------------------------------      |
------------------------------------------------      |
------------------------------------------------      |
----------0-2-0---------------------------------twice |
0-------0-------3-0-----0-----------------------      |
------------------------------------------------      |
                                                      |
------------------------------------------------      |
------------------------------------------------      |
------------------------------------------------      |
----------0-2-0--0/1/2--------------------------      |
0-------0-------3-------------------------------      |
------------------------------------------------  ____|

                                                    ____
------------------------------------------------        |
------------------------------------------------        |
--------------------------------------2---2-2---        |
--2---3---3-3-----0-2-----------5-5---2---2-2---        |
0---0---------0-3-----0---0-0---5-5---0---0-0---        |
--------------------------------3-3-------------        | 
                                                        | - twice
------------------------                                |
------------------------                                |
5-------2-------2---5---                                |
5---5---2---3---2---5---                                |
3---5---0---3---0---3---                                |
----3-------1-----------                            ____|

                                                   
------------------------------------------------       
------------------------------------------------       
--------------------------------------2---------       
--2---3---3-3-----0-2-----------5-5---2---5---3-       
0---0---------0-3-----0---0-0---5-5---0---5---3-       
--------------------------------3-3-------3---1-       
                                                       
--------------------------                               
--------------------------                               
--------------------------                               
--3-3-3-3-3-3-222-2-2-2-2-                         
--1-1-1-1-1-1-222-2-2-2-2-                           
--3-3-3-3-3-3-000-0-0-0-0-                       

part b
------------------------------------------------------------------
------------------------------------------------------------------
------------------------------------------------------------------
----2-----2---5-----5-----5---4-----4-----4---3-----3-----3---2---
0-0---0-0---0-----0---0-0---0-----0---0-0---0-----0---0-0---0-----
------------------------------------------------------------------

------------------------------------------------------------------
------------------------------------------------------------------
------------------------------------------------------------2-2-2-
--2-----2---5-----5-----5---4-----4-----4---3-----3-----3---2-2-2-
0---0-0---0-----0---0-0---0-----0---0-0---0-----0---0-0---0-0-0-0-
------------------------------------------------------------------

----------------------------------------------------------------
----------------------------------------------------------------
2-----2---5-----5-----5---4-----4-----4---3-----3-----3---2----- twice
2-----2---5-----5-----5---4-----4-----4---3-----3-----3---2-----
0-xx0-0-0-3---0-3-xx0-3-0-2---0-2-xx0-2-0-1---0-1-xx0-1-0-0---0-
----------------------------------------------------------------

----------------------------------------------------------
----------------------------------------------------------
----------------------------------------------------------
2-----2---5-----5-----5---4-----4-----4---3-----3-----3---
2-----2---5-----5-----5---4-----4-----4---3-----3-----3---
0-xx0-0-0-3-----3-xx0-3-0-2-----2-xx0-2-0-1-----1-xx0-1---

--------------------------------
--------------------------------
----------------7---7-7-7-7-7---
5---5-5-555-5---7---7-7-7-7-7---
5---5-5-555-5---5---5-5-5-5-5-0-
3---3-3-333-3-------------------

it goes back to part b with this on top of it:

----------------------------------------------------------------
----------------------------------------------------------------
----------------------------------------------------------------
------------------------1/2---2---------1/2---0---------1/2-0---  twice
0---------0-2-3-----------------------------------------------3-
----------------------------------------------------------------
                                                __
------------------------------------              |
------------------------------------              |
------------------------------------              |
------------------------------------              |
------------------------3-------5---              |
0---0-3---5---3-4-5-x-x-----3-x-----              |
                                                  | - twice
----------------------------                      |
----------------------------                      |
----------------------------                      |
----------------------------                      |
----3-----------------------                      |
3-5---5-4-3-0-3-0-3-5---3---                    __|

---------------------------------
---------------------------------
-5---5---------------------------
-5---5-5-------------------------
-3---3-5-------------------------
-------3-------------------------

------------------------------------------------------------------
------------------------------------------------------------------
-7---7------------------------------------------------------------
-7---7-7-------------------------8--------------------------------
-5---5-7-------------------------8--------------------------------
-------5-------------------------6--------------------------------

                                                __
------------------------------------              |
------------------------------------              |
------------------------------------              |
------------------------------------              |
------------------------3-------5---              |
0---0-3---5---3-4-5-x-x-----3-x-----              |
                                                  | - twice
-----------------------------------------         |
-----------------------------------------         |
-----------------------------------------         |
-----------------------------------------         |
----3-----------------------3------------         |
3-5---5-4-3-0-3-0-3-5---3-------3---5---3       __|
                                                __
------------------------------------              |
------------------------------------              |
------------------------------------              |
------------------------------------              |
------------------------3-------5---              |
0---0-3---5---3-4-5-x-x-----3-x-----              |
                                                  | - three times
----------------------------                      |
----------------------------                      |
----------------------------                      |
----------------------------                      |
----3-----------------------                      |
3-5---5-4-3-0-3-0-3-5---3---                    __|

---------------------------------
---------------------------------
-5---5---------------------------
-5---5-5-------------------------
-3---3-5-------------------------
-------3-------------------------

------------------------------------------------------------------
------------------------------------------------------------------
-7---7------------------------------------------------------------
-7---7-7-------------------------8--------------------------------
-5---5-7-------------------------8--------------------------------
-------5-------------------------6--------------------------------


Title: Re: Melvins Tabs
Post by: Fureon Nectarmoon on September 22, 2013, 10:58:17 AM
Hey, sorry to interrupt your hamster talk, but I was fooling around with my harmonica yesterday and I've figured out how to play Peggy Gordon (well, at least the way the Melvins did it, which seems to differ from the traditional way, but I like their version better). I can write the notation for the C-key harmonica and I can translate it to notes, but I'm no guitarist, so I have no idea what would be the best way to play those notes on guitar. I hope you guys will have a go at it and figure it out.

P.G. x 3 (Peggy Gordon)
for Harmonica in the key of C

------------------------------------
Oh  Pe  ggy  Gor  don
3↑  4↑  3↑   4↑   4↓

You are my  da  a   a   ar  ling
5↑  5↓  5↑  4↑  4↓  4↑  3↓  3↑

Come sit you down
5↑   5↓  6↓  6↑

Up  o-  on  my  knee
5↑  5↑  4↓  4↑  4↓

And tell to me
5↑  5↓   6↓ 6↑

The ve  ry  re  e   e   ea  son
4↑  5↓  5↑  4↑  4↓  4↑  3↓  3↑

Why I   am  sligh ted so by thee
5↑  5↓  6↓  6↑    4↑  4↓ 3↓ 4↑
------------------------------------

Notes

------------------------------------
Oh  Pe  ggy  Gor  don
G5  C6  G5   C6   D6

You are my  da  a   a   ar  ling
E6  F6  E6  C6  D6  C6  B5  G5

Come sit you down
E6   F6  A6  G6

Up  o-  on  my  knee
E6  E6  D6  C6  D6

And tell to me
E6  F6   A6 G6

The ve  ry  re  e   e   ea  son
C6  F6  E6  C6  D6  C6  B5  G5

Why I   am  sligh ted so by thee
E6  F6  A6  G6    C6  D6 B5 C6
------------------------------------
Title: Re: Melvins Tabs
Post by: DeeSonyaChin on April 04, 2014, 06:40:03 PM
Dont know if this has been posted but I learned how to play We Are Doomed watching this guys

http://youtu.be/_fRaTOEiREA (http://youtu.be/_fRaTOEiREA)

all credit goes to him. His screen name is DogCowFrog. Enjoy.
I don't play myself but i'd say he's pretty good.



he is!

Yup this guy is the shit. He also does war on wisdom, its not dead on but its close enough to where if you fiddle around with it maybe you can improve on it a little.

Trying to learn from video, but I get cross eyed near the end of the riff (there ain't a whole lot of holding on, going on)

Could someone awesome tab from there to the end of that set of riffs?  (Or the whole song if they have it)?
Title: Re: Melvins Tabs
Post by: WGB on January 28, 2015, 03:00:12 PM
I wish there were more tabs, since they have released about 500 songs since this was last updated.
Title: Re: Melvins Tabs
Post by: meezer on September 16, 2015, 07:02:48 AM
Why is the lyrics section many different threads, but the guitar tabs section is one long, meandering thread? Makes it hard to research.  :?
Title: Re: Melvins Tabs
Post by: meezer on December 05, 2015, 12:12:34 PM
Still waiting for an answer on this.

Facebook is abuzz with melvins covers this weekend.
Go join in (if you're not banned  \:D/ ).  :P
Title: Re: Melvins Tabs
Post by: coreystevens88 on May 10, 2016, 06:30:35 AM
Anyone tried tabbing The Decay of Lying yet? 
Title: Re: Melvins Tabs
Post by: justen.outlaw on June 12, 2016, 03:37:28 AM
Anyone tried tabbing The Decay of Lying yet?
same question...i can't stop listening to it!
Title: Re: Melvins Tabs
Post by: jack5990 on June 12, 2016, 04:22:41 AM
Here's what I've got for Decay Of Lying
(no Idea how to format this to be board friendly)

Melvins - Decay of Lying
Tabbed by K.Mackie

e|---------------------------------------------|
b|---------------------------------------------|
g|---------------------------------------------|
D|---------------------------------------------|
A|-------------------3~-----5~---------------|
D|-0-x---0—3~-0-------0------0--3~-x-----|
             Pm    pm       pm     pm


e|---------------------------|-------------------------|
b|---------------------------|-------------------------|
g|---------------------------|-------------------------|
D|---------------------------|-------------------------|
A|------5--------------------|--0---0--1~-1-0-0-----|
D|--0r----3-2-3~--3-2-0---|---3--------------------|

e|------------------------------------------------|
b|------------------------------------------------|
g|------------------------------------------------|
D|------------------------------------------------|
A|-----5----------0---0----1~-1-0-0-----------|
D|-0r----3-2-3~--------3------------3-3-5-5--|

e|--------------------------------------|
b|--------------------------------------|
g|--------------------------------------|
D|--------------------------------------|
A|----------------------3~------5~----|
D|-0-x--0-1~--0--3~-----0-------0--|
            Pm    Pm          pm     pm
e|------------------------------------------|
b|------------------------------------------|
g|------------------------------------------|
D|------------------------------------------|
A|------------------------------------------|
D|-0-x--0-1~--0-3~--0-1~---1-3-1-0r-|
            Pm     pm    pm   
Title: Re: Melvins Tabs
Post by: meezer on June 12, 2016, 07:06:04 AM
Hey! There's justen.outlaw!  :D
Title: Re: Melvins Tabs
Post by: Dumpster D on August 08, 2016, 01:48:30 AM
I really Hate Tabs, dont rely on them more than your own Ears.
Title: Re: Melvins Tabs
Post by: meezer on August 08, 2016, 06:06:23 AM
I really Hate Tabs, dont rely on them more than your own Ears.
That's just something each player has to develop on their own. I was atrocious at first, but was able to figure more stuff over a few years. Mostly don't have the time to do this unless I really just have to know. Melvins stuff is pretty easy for me to figure out these days, besides stuff like (parts of) Stag where the riffs and chords are stacked up tight and it's a bunch of metal shit anyway. Building up chords. Breaking them down. Minor, major, diminished. Stuff like that.
Title: Re: Melvins Tabs
Post by: Dumpster D on August 08, 2016, 07:40:08 AM
Buzzo writes Stuff pretty much 95% pentatonic blues scale dude...thats all it is, Except when its like a thrash Riff here or there but slowed down until its dead slow.

Take Boris or Hag me for example...speed those up and its like any oldschool Thrash metal riffage more or less.

Now, You give me the correct Tabs to play Hog Leg and I will show you a disease-free hooker.
Title: Re: Melvins Tabs
Post by: meezer on August 08, 2016, 07:45:40 AM
The stuff I struggle with is probably written by Mark D
Title: Re: Melvins Tabs
Post by: justen.outlaw on September 01, 2016, 03:06:48 AM
Hey! There's justen.outlaw!  :D

heeeeyyyyyyy
Title: Re: Melvins Tabs
Post by: meezer on September 01, 2016, 06:17:16 AM
Hey! There's justen.outlaw!  :D

heeeeyyyyyyy
8)
Title: Re: Melvins Tabs
Post by: Melvery on March 03, 2017, 04:29:11 AM
Thank you guys! I`ll try to use some tabs on my guitar!
Title: Re: Melvins Tabs
Post by: Melvery on March 28, 2017, 11:45:59 AM
My husband and i always listen this group, when we have a breakfast. WE met at http://www.cupid.com/single-women.htm
Title: Re: Melvins Tabs
Post by: meezer on March 28, 2017, 02:20:44 PM
 :lol:
Title: Re: Melvins Tabs
Post by: branjaymes on October 20, 2017, 10:59:26 AM
Does anyone have any idea what the guitar tuning is on the A Walk With Love & Death album? I'm pretty sure its different than what they play live. the song I'm interested in specifically is Sober-Delic. i don't really need tabs if i can figure out what Buzz is tuned to. HELP!

thanks!!