Show Posts

This section allows you to view all posts made by this member. Note that you can only see posts made in areas you currently have access to.


Messages - TJP

Pages: [1] 2 3
1
Melvins Lyrics & Tabs / Re: Melvins Tabs
« on: December 18, 2008, 06:12:16 AM »
Theres been some awesome live melvins stuff put on youtube recently and ive been watching the with teeth ones constantly to try and figure out the guitar and i think this tab might be what is played on bass not guitar! from what i can see buzz just constantly strums the same chord over and over
           
Riff 1 - repeat 9 or 10 times
   1   +   2   +   3   +   4   +     1   +   2   +   3   +   4   +   
e|---------------------------------|---------------------------------|
b|---------------------------------|---------------------------------|
g|---------------------------------|---------------------------------|
d|-5-----------4-----------5-------|-5-----------9-----------5-------|
A|-3-----------2-----------3---0---|-3-----------7-----------3-------|
D|-0-----------0-----------0---0---|-0-----------0-----------0-------|
                     
e|---------------------------------|---------------------------------|
b|---------------------------------|---------------------------------|
g|---------7---------------7-------|-7-----------7-----------7-------|
d|---------7---------------7-------|-7-----------7-----------7-------|
A|---------5-----------0---5---0---|-5-----------5-------0---5---0---|
D|-0-0-0---0-----------0---0---0---|-0-----------0-------0---0---0---|
   x x x

2
Melvins Lyrics & Tabs / Re: Melvins Tabs
« on: September 24, 2008, 02:05:20 PM »

3
Melvins Lyrics & Tabs / Re: Melvins Tabs
« on: September 22, 2008, 02:44:55 PM »
could anyone help me with putting these onto the melvins wiki?

http://www.themelvins.net/forum/index.php?topic=2273.195

4
Melvins Discussion / Re: new popularity?
« on: September 01, 2008, 12:24:46 PM »
where i live nobody knows who the melvins are! not one single person ive meet around here has every said "oh yeah ive heard of the melvins"  the kids in my town all listen to my chemical romance, trivium and BFMV!  dragon force! that type of shite!

5
Melvins Album Discussion / Re: Nude With Boots
« on: May 14, 2008, 02:01:20 PM »
holy shit this new melvins album is really fucking amazing i kinda feel a bit guilty downloading it but i know ill buy it so sod it

6
Melvins Discussion / Re: The MELFINS
« on: November 30, 2007, 10:14:43 AM »
LOL Coady Cracked me up

7
Melvins Lyrics & Tabs / Re: Melvins Tabs
« on: November 26, 2007, 09:59:26 AM »
i know this may be considered off topic to some , but id like to see some big business tabs, and since jared and coady are part of the melvins, i dont really find it to be that off topic.
Cant you just figure them out yourself? im sure its not that hard

8
Melvins Discussion / Re: Dale dj-ing and Buzz will be serving drinks
« on: July 16, 2007, 01:06:15 PM »
i got this from toolband.com
so i dont know

9
Melvins Discussion / Dale dj-ing and Buzz will be serving drinks
« on: July 16, 2007, 12:46:42 PM »
THE MELVINS' DALE CROVER will be DJ-ING on WEDNESDAY, JULY 18th at the SILVERLAKE CHA CHA LOUNGE (from 10:00 PM until they close). And then, on WEDNESDAY, JULY 25th, BUZZ OSBOURNE will be the guest bartender at the CHA CHA... "KING BUZZO" mixing drinks... making MAI TAIs and pouring shots of 99 Bananas! Now this I've got to see. THE CHA CHA LOUNGE is located at 2375 Glendale Blvd., Los Angeles, CA. For more information, please visit www.chachalounge.com.

(sorry if this has already been mentioned)

10
Melvins Lyrics & Tabs / Re: Melvins Tabs
« on: June 20, 2007, 08:09:35 AM »
Echo Head - MelviNs
tabbed by tjp 
                 
                          x2|
e|--------------------------|---|
B|--------------------------|---|
G|--------------------------|---|
D|--------------------------|---|
A|--0h3-0--0-0-1p0--0-0-3~~~|-0-|
D|--0h3-0--0-0-1p0--0-0-3~~~|-0-|
             
                                            x2|
e|--------------------------------------------|
B|---------------1x1-0x-1-2-2-1-0-1-2-0-2-3/--|
G|---------------1x1-0x-1-2-2-1-0-1-2-0-2-3/--|
D|--------------------------------------------|
A|-6x6-5-x5-----------------------------------|
D|-6x6-5-x5-6-7~~-----------------------------|         
             
                          x2|
e|--------------------------|-------|-------------------------|
B|--------------------------|-------|-------------------------|
G|--------------------------|---x-x-|-------------------------|
D|--------------------------|---x-x-|-------------------------|
A|--0h3-0--0-0-1p0--0-0-3~~~|-0-x-x-|-0h3-0--0-0-1p0--0-0-3-0-|
D|--0h3-0--0-0-1p0--0-0-3~~~|-0-----|-0h3-0--0-0-1p0--0-0-3-0-|
               
                     
e|-----------------------------------------------------------------------------------|
B|----------------1x1-0x-1-2-2-1-0-1-2-0-2-3-<Let Ring->>>>>>>>>>>>>>>>>>>>>>>>>>>>>-|
G|----------------1x1-0x-1-2-2-1-0-1-2-0-2-3-<--------->>>>>>>>>>>>>>>>>>>>>>>>>>>>>-|
D|-----------------------------------------------------------------------------------|
A|-6x6-5-x5--------------------------------------------------------------------------|
D|-6x6-5-x5-6-7~~--------------------------------------------------------------------|
         
--------------------------------------------------------------------------------------------------------------------------
Dont Piece Me - mELVInS
tabbed by tjp       
         
           
         Fast intro
|----------------------------------------------------------------------|
|----------------------------------------------------------------------|
|----------------------------------------------------------------------|
|------7-6-----5-4-5-----7-6----7-7-7-----5-4-----7-6------5-4-5-5-5-5-|
|----------------------------7--5-5-5-----------------7----------3-3-3-|
|--5-5-----3-3-------5-5--------------3-3-----5-5-------3--------------|
       
         
     Slow
|------------------------------------------------------------------|
|------------------------------------------------------------------|
|------------------------------------------------------------------|
|-----7-6------5-4-7------7-6---x7-7-7-----5-4-----7-6-------5-4---|
|------------------5----------7-x5-5-5-----------------7---------5-|
|-5-5------3-3--------5-5--------------3-3-----5-5-------3-3-------|

 
 verse                                                                          x2|
|---------------------------------------------------------------------------------|---------|
|---------------------------------------------------------------------------------|---------|
|---------------------------------------------------------------------------------|---------|
|---------------------------------------------------------------------------------|---------|
|-10-9-7-0-0-3-0-0-0-10-9-7-0-3-3-3-3-3-10-9-7-0-0-3-0-0-0-1p0-0-1p0-0-1p0-/4~~~~-|---------|
|-10-9-7-0-0-3-0-0-0-10-9-7-0-3-3-3-3-3-10-9-7-0-0-3-0-0-0-1p0-0-1p0-0-1p0-/4~~~~-|-3~~~~~~-|
         . .     . .                           . .     . .     .     .
             
|--------------------------------------------------------------------------------------------|
|--------------------------------------------------------------------------------------------|
|--------------------------------------------------------------------------------------------|
|------------------------------4-----5p4-x-------------3-----4p3-------------------4-----5p4-|
|----------------------------4-4-4-4-5p4-x-4~--------3-3-3-3-4p3-3---------------4-4-4-4-5p4-|
|-4b~~~~~~~~~-3~~~~~~~~//-\\-4---4-4-----x---5-4-5-3-3---3-3-------4-3-4p3h3-3h4-4---4-4-----|
                                 . .                     . .                         . .
           
|-------------------------------------|
|--------------------------xxxx-------|
|--------------------------xxxx-------|
|-4~----------------3-----4xxxx-5~~~~-|
|---5-4-5p4h5-4---3-3-3-3-4xxxx-3~~~~-|
|---------------5-3---3-3-------------|
                      . .
                                                                    x2|
|---------------------------------------------------------------------|
|---------------------------------------------------------------------|
|---------------------------------------------------------------------|
|-0-------1-------4-------3------0-----0----1----1----4----4----3-----|
|-0---0-0-1---0-0-4---0-0-3------0-0-0-0----1----1----4----4----3~~~--|
|-0---0-0-1---0-0-4---0-0-3------0-0-0-0----1----1----4----4----3~~~--|
                                   . .
       
    solo                      | you get the idea      |
|-----------------------------|-----------------------|------------------------------|
|-----------------------------|-----------------------|-8b9--------------------------|
|-----------------------------|-7-7-8-8-11-11-10~~--10|----/5~~----------------------|
|-----------2~~---------------|-7-7-8-8-11-11-10~~--10|---------4-----4---4-5-6b7--5-|
|-5~~555555-------------------|-----------------------|-----------4-5---5------------|
|---------------3b4~~~~-3-----|-----------------------|------------------------------|
 
   
|---------------------------------------------------|
|---------------------------------------------------|
|--6b-6b-00-5b-5b-00-6b-6b-00-5b-5b~~~~~------------|
|----------------------------------------[4]----[2]-|
|----------------------------------------[4]-or-[2]-|
|----------------------------------------[4]----[2]-|
       
FIN.
 

11
Melvins Album Discussion / Re: LYSOL
« on: June 12, 2007, 09:18:12 AM »
 :lol:

12
even if it WAS funny i don't think i could watch just because of the horizontal wrinkle between greg gutfeld's eyes.
:lol:

13
Melvins Lyrics & Tabs / Re: Melvins Tabs
« on: June 09, 2007, 04:21:06 PM »
Never seen this tabbed on guitar so i thought i would give it a go


Heater moves and eyes - Melvins
         
tabbed by TJP
 
                       
intro                                x3|
e|-------------------------------------|-----------------------------------------|
b|-------------------------------------|-----------------------------------------|
g|-------------------------------------|-----------------------------------------|
d|-------------------------------------|--------------5-6-6~~~-------------------|
a|-2--2-2-2--8-7-2-2-2--8-7-2-2-2--8-7-|-2--2-2-2-4-5-3-4-6~~~-7-6-8-7-6-7-4-5-2-|
e|-0--0-0-0--6-5-0-0-0--6-5-0-0-0--6-5-|-0--0-0-0-2-3-----4~~~-5-4-6-5-4-5-2-3-0-|
        . .        . .        . .             . .               P. H.
             
                                        |        |                                 x3|
e|--------0----0--------0---------------|--------|-----------------------------------|
b|-------0-----0-----00--------00-------|--------|-----------------------------------|
g|-----------------------------44-xx-xx-|--------|-----------------------------------|
d|--------------------------------xx-xx-|-----x--|--------------------------------x--|
a|-2--2--2--2--2--2--2--2--2--2---xx-xx-|-8-7-x7-|-4-2-4-2-4-2-2-4-2-2-2-4-2/-8-7-x7-|
e|-0--0--0--0--0--0--0--0--0--0---xx-xx-|-6-5-x5-|-2-0-2-0-2-0-0-2-0-0-0-2-0/-6-5-x5-|
   .  .  .  .  .  .  .  .  .  .                      .   .   . .   . . . 
       
                                            x2|                                                        x2|
e|--------------------------------------------|----------------------------------------------------------|
b|--------------------------------------------|-0-2-5-7-8-8-8-8-8-8-8-8-8-8-8-8-9^-9^-9^-9^-9^-9^-9^--0--|
g|--------------------------------------------|-0-2-5-7-8-8-8-8-8-8-8-8-8-8-8-8-9^-9^-9^-9^-9^-9^-9^--0--|
d|---------------------------7^---------------|-------------------------------------------------------0--|
a|-2--2-2-2--8-7-2--2-2--8-7-5^-2--2-2--8-7-7-|-------------------------------------------------------0--|
e|-0--0-0-0--6-5-0--0-0--6-5----0--0-0--6-5-5-|----------------------------------------------------------|
       
         
                                 |                                  x3|
e|-------------------------------|------------------------------------|
b|-------------------------------|------------------------------------|
g|-------------------------------|------------------------------------|
d|-------------------------------|------------------------------------|
a|-2--2-2-4--4---4-5-7~~~~-2-----|-2-2-2-2-2-2-2-2-2-2-2-2-2-2--3-2-5-|
e|-0--0-0-2--2-0-2-3-5~~~~-0-----|-0-0-0-0-0-0-0-0-0-0-0-0-0-0--1-0-3-|
      . .
     
                                x3|
e|--------------------------------|-----------------------------------------------------------|
b|--------------------------------|-----------------------------------------------------------|
g|--------------------------------|-----------------------------------------------------------|
d|--------------------------------|-----------------------------------------------------------|
a|-2--2-2-4--4---4-5-7~~~2--3-2-5-|-2--2-2-4--4---4-5-7~~~~----7^~~~~^~~~~~~^~~8^~~~^~~~~~~~~~|
e|-0--0-0-2--2-0-2-3-5~~~0--1-0-3-|-0--0-0-2--2-0-2-3-5~~~~0-0-5^~~~~^~~~~~~^~~6^~~~^~~~~~~~~~|
           
         
                    x2|
e|--------------------|----------------------------------------------------------|
b|--------------------|----------------------------------------------------------|
g|--------------------|----------------------------------------------------------|
d|--------------------|----------------------------------------------------------|
a|-8-5-8-8--8-8-8-8-8-|-8-9-8--8-8--8-9-8--8-8--8-9-8--9-8-9-8-9-8-9-8--8^~~~~-8-|
e|-6-7-6-6--6-6-6-6-6-|-6-7-6--6-6--6-7-6--6-6--6-7-6--7-6-7-6-7-6-7-6--6^~~~~-6-|
                . .            . .         . .
               
FIN.

14
Melvins Lyrics & Tabs / Re: Melvins Tabs
« on: June 08, 2007, 01:52:16 PM »
Just made a couple of changes

                   
Green honey - Melvins
               
tabbed by TJP
               
Intro
                  |                   1,2|                           3|
|-----------------|-------------|--------|----------------------------|
|-----------------|-------------|--------|----------------------------|
|-----------------|-------------|--------|----------------------------|
|-----------------|-------------|--------|----------------------------|
|-1-0-0-1-0-0-1-0-|-12-0-0-12-0-|-3^-2-3-|-0-9-0-0-10-0-0-13-0-0-12~~-|
|-1-0-0-1-0-0-1-0-|-12-0-0-12-0-|-3^-2-3-|-0-9-0-0-10-0-0-13-0-0-12~~-|
                  | Play x 3
                                     
Verse
                1,2,4,5|                         3,6|
|-------------|--------|----------------------------|
|-------------|--------|----------------------------|
|-------------|--------|----------------------------|
|-------------|--------|----------------------------|
|-12-0-0-12-0-|-3^-2-3-|-0-9-0-0-10-0-0-13-0-0-12~~-|
|-12-0-0-12-0-|-3^-2-3-|-0-9-0-0-10-0-0-13-0-0-12~~-|
  Play x 6
   
     
|---------------------------------------------------------------------------|
|---------------------------------------------------------------------------|
|---------------------------------------------------------------------------|
|---------------------------------0-0---------------------------------------|
|---------------------------------0-0---------------------------------------|
|-1-0-0-1-0-0-1~~-0-1-0-0-1-0-0-1-0-0---0-0-1-0-0-1-0-0-1~~-0-1-0-0-1-0-0-1-|
                    . . . . . . .                             . . . . . . .
               
|------------------------------------------------------|
|------------------------------------------------------|
|------------------------------------------------------|
|--0-0-------------------------------------------------|
|--0-0-5---------------4-3----------3-------------2-1--|
|--0-0---4-5-5^~~~-5-5-----4-3-4~~4---2-3-3^~~3-3-2-1--|
   
   
Outro
                                 x2|
|----------------------------------|-----------------------------------------------------|
|----------------------------------|-----------------------------------------------------|
|---------------------7-6-7-6-7-6--|-----------------------------------------------------|
|---0-0-0-0-0-0-0-0-0-5-4-5-4-5-4--|-----0---------------------------0-------------------|
|---0-0-0-0-0-0-0-0-0--------------|-0-0-0-0-0-0-0-0-5-4-5-4-5-4-0-0-0-0-0-0-0-0-5-4-5-4-|
|---0-0-0-0-0-0-0-0-0--------------|-0-0-0-0-0-0-0-0-5-4-5-4-5-4-0-0-0-0-0-0-0-0-5-4-5-4-|
    . .   . . . . . .                . .                         . .   
             
               
|--------|
|--------|
|--------|
|-4--4-4-|
|-4--4-4-|
|-4--4-4-|

FIN.

15
Melvins Album Discussion / Re: Ozma
« on: June 08, 2007, 07:35:39 AM »

Pages: [1] 2 3