Author Topic: help me compelte this tabs  (Read 1791 times)

0 Members and 1 Guest are viewing this topic.

Anonymous

  • Guest
help me compelte this tabs
« on: August 10, 2003, 05:09:16 PM »
Im trying to figure it out

Revulsion

7-6--0-0-5-----5-4/12-12-12-12-12-12-12-12
7-6--0-0-5-----5-4/
5-4--0-0-3-----3-2/

Anonymous

  • Guest
help me compelte this tabs
« Reply #1 on: August 10, 2003, 05:24:19 PM »
something like this

Intro
7-6--0-0-5-5-5-5-----5-4/12-12-12-12-12-12-12-12
7-6--0-0-5-5-5-5-----5-4/
5-4--0-0-3-3-3-3-----3-2/

7-6--0-8--0-9 |
7-6--0-8--0-9 |
5-4--0-6--0-7 |

8-7-6--7-6-5--3-3-3-3-3-3-3-3-3 ?
8-7-6--7-6-5--3-3-3-3-3-3-3-3-3?
6-5-4--5-4-3--1-1-1-1-1-1-1-1-1?
repeat

something like this