Author Topic: Melvins Tabs  (Read 79405 times)

0 Members and 2 Guests are viewing this topic.

Offline Green Honey

  • Moderator
  • godfather of grunge
  • *******
  • Posts: 1631
  • Gender: Male
    • View Profile
    • bookface
Melvins Tabs
« on: November 29, 2004, 09:21:21 AM »
Welcome to the most accurate collection of Melvins tabs, as far as I know of.
Please go ahead and post any missing tabs you've made or found elsewhere.
Ta.


EDIT also here: http://www.themelvins.net/wiki/index.php?title=Category:Tablature

Offline Green Honey

  • Moderator
  • godfather of grunge
  • *******
  • Posts: 1631
  • Gender: Male
    • View Profile
    • bookface
Melvins Tab
« Reply #1 on: November 29, 2004, 10:53:32 AM »
Eye Flys
(bass)

intro:

g-----------------|
d-----------------|
a-----------------|
e-------------0---|

g-----------------|-----------------|
d-----------------|-----------------|
a-----------------|-----------------|
e-1---0---2---0---|-2---3---2---0---|

Offline Green Honey

  • Moderator
  • godfather of grunge
  • *******
  • Posts: 1631
  • Gender: Male
    • View Profile
    • bookface
Melvins Tab
« Reply #2 on: November 29, 2004, 03:31:43 PM »
"Pigs of the Roman Empire"
*Live Version*

tune E string down to D


First Riff
E------------------------------------------------------------
B------------------------------------------------------------
G------------------------------------------------------------
d------------------------------------------------------------
a-------1-3-------------------1---gradually bend-------------
D-0---5-----3---5b--0-3-5-0----------------------------------


2nd Riff
E---------------------------------
B---------------------------------
G---------------------------------
d---------------------------------
a-----------------------3-----5---
D-0-0-0-0-0-0-0-0-0-0-0---5-3-----


Offline Green Honey

  • Moderator
  • godfather of grunge
  • *******
  • Posts: 1631
  • Gender: Male
    • View Profile
    • bookface
Melvins Tab
« Reply #4 on: November 29, 2004, 09:40:08 PM »
For You Darling
(from a bedroom recording, 1983)
 

<> = Pinch Harmonic
 
Intro:

b---------------------------------|---------------------------------|
g---------------------------------|---------------------------------|
d---------------------------------|---------------------------------|
a-----------------7-------7---5---|-----5-------5---4--<5>----------|
e-0-------0---0-------------------|-------------------------5-------|

Offline Green Honey

  • Moderator
  • godfather of grunge
  • *******
  • Posts: 1631
  • Gender: Male
    • View Profile
    • bookface
Melvins Tab
« Reply #5 on: November 29, 2004, 09:45:16 PM »
Mombius Hibachi

Riff 1 (play 4 times):
e ---------------------------------|---------------------------------|
b ---------------------------------|---------------------------------|
g ---------------------5-----------|-----------------5-------5-------|
d -----------------x---5-----------|-----------------5-------5-------|
a -0---0---3---0---x---3-----------|-0---0---3---0---3-------3---0---|
D -0---0---3---0-------------------|-0---0---3---0---------------0---|


Riff 2 (play twice):
e ---------------------------------|---------------------------------|
b ---------------------------------|---------------------------------|
g ---------------------------------|---------------------------------|

Offline Beto Brasil

  • Handler
  • ******
  • Posts: 3488
  • Gender: Male
  • beto@themelvins.net
    • View Profile
    • http://www.themelvins.net/beto/DVD.htm
Melvins Lyrics + Tab of the Day
« Reply #6 on: November 30, 2004, 02:58:50 PM »
Trading music since 1999 :

Update : http://www.themelvins.net/beto/DVD.htm

Offline Green Honey

  • Moderator
  • godfather of grunge
  • *******
  • Posts: 1631
  • Gender: Male
    • View Profile
    • bookface
Melvins Lyrics + Tab of the Day
« Reply #7 on: November 30, 2004, 05:12:14 PM »
Thanks, Beto but that site never seems to work properly, eg. when i try to submit stuff

Offline Beto Brasil

  • Handler
  • ******
  • Posts: 3488
  • Gender: Male
  • beto@themelvins.net
    • View Profile
    • http://www.themelvins.net/beto/DVD.htm
Melvins Lyrics + Tab of the Day
« Reply #8 on: December 01, 2004, 01:03:07 PM »
Quote from: Green Honey
Thanks, Beto but that site never seems to work properly, eg. when i try to submit stuff


yeah, some letter are not online..
Trading music since 1999 :

Update : http://www.themelvins.net/beto/DVD.htm

Dog Tired

  • Guest
Melvins Lyrics + Tab of the Day
« Reply #9 on: December 01, 2004, 01:39:44 PM »
Damn dude...
 
I thought it was going to be on one every day/week/month whatever.. but you're putting one up like every minute.

Offline Green Honey

  • Moderator
  • godfather of grunge
  • *******
  • Posts: 1631
  • Gender: Male
    • View Profile
    • bookface
Melvins Lyrics + Tab of the Day
« Reply #10 on: December 01, 2004, 02:34:46 PM »
Quote from: Dog Tired
Damn dude...
 
I thought it was going to be on one every day/week/month whatever.. but you're putting one up like every minute.

Yeah it's more like an album a day.  :lol:  Would you like me to stop? I'm very open to suggestions in this case.

Dog Tired

  • Guest
Melvins Lyrics + Tab of the Day
« Reply #11 on: December 01, 2004, 04:51:23 PM »
No sir keep going....

It gives me something to read / waste time / keeping me from doing my homework.

EDIT*

Perhaps some stuff from the Jello Comp...

Offline Green Honey

  • Moderator
  • godfather of grunge
  • *******
  • Posts: 1631
  • Gender: Male
    • View Profile
    • bookface
Melvins Lyrics + Tab of the Day
« Reply #12 on: December 01, 2004, 05:34:51 PM »
Quote from: Dog Tired
No sir keep going....

It gives me something to read / waste time / keeping me from doing my homework.

EDIT*

Perhaps some stuff from the Jello Comp...

Nice choice. I've figured out a bit of "Enchanted Thoughtfist" already so I'll get doing the rest of that tomorrow.

EDIT: You do mean tabs, right? The lyrics are in the booklet

Dog Tired

  • Guest
Melvins Lyrics + Tab of the Day
« Reply #13 on: December 01, 2004, 07:26:23 PM »
Quote from: Green Honey
Quote from: Dog Tired
No sir keep going....

It gives me something to read / waste time / keeping me from doing my homework.

EDIT*

Perhaps some stuff from the Jello Comp...

Nice choice. I've figured out a bit of "Enchanted Thoughtfist" already so I'll get doing the rest of that tomorrow.

EDIT: You do mean tabs, right? The lyrics are in the booklet


Of course.

Offline Beto Brasil

  • Handler
  • ******
  • Posts: 3488
  • Gender: Male
  • beto@themelvins.net
    • View Profile
    • http://www.themelvins.net/beto/DVD.htm
Melvins Lyrics + Tab of the Day
« Reply #14 on: December 02, 2004, 03:58:50 PM »
Trading music since 1999 :

Update : http://www.themelvins.net/beto/DVD.htm