Author Topic: Melvins Tabs  (Read 79517 times)

0 Members and 1 Guest are viewing this topic.

Offline Beto Brasil

  • Handler
  • ******
  • Posts: 3488
  • Gender: Male
  • beto@themelvins.net
    • View Profile
    • http://www.themelvins.net/beto/DVD.htm
Melvins Lyrics + Tab of the Day
« Reply #15 on: December 02, 2004, 04:00:05 PM »
no no, below is better.
all albuns online....

http://www.stlyrics.com/songs/m/melvins17076.html
Trading music since 1999 :

Update : http://www.themelvins.net/beto/DVD.htm

Offline Green Honey

  • Moderator
  • godfather of grunge
  • *******
  • Posts: 1631
  • Gender: Male
    • View Profile
    • bookface
Melvins Lyrics + Tab of the Day
« Reply #16 on: December 02, 2004, 04:21:07 PM »
Quote from: Beto Brasil
no no, below is better.
all albuns online....

http://www.stlyrics.com/songs/m/melvins17076.html


Obrigado uma vez outra vez, Beto!

Offline Beto Brasil

  • Handler
  • ******
  • Posts: 3488
  • Gender: Male
  • beto@themelvins.net
    • View Profile
    • http://www.themelvins.net/beto/DVD.htm
Melvins Lyrics + Tab of the Day
« Reply #17 on: December 02, 2004, 04:29:13 PM »
Quote from: Green Honey
Obrigado uma vez outra vez, Beto!


O seu portugu
Trading music since 1999 :

Update : http://www.themelvins.net/beto/DVD.htm

Offline Green Honey

  • Moderator
  • godfather of grunge
  • *******
  • Posts: 1631
  • Gender: Male
    • View Profile
    • bookface
Melvins Tab
« Reply #18 on: December 03, 2004, 10:36:24 AM »
Nasty Dogs & Funky Kings
(ZZ Top)


intro
guitar 1
E-------------------------------
B-------------------------------
G-14-12----12-------------------
D-------14----14-13-12-10-10----
A----------------------------12-
E-------------------------------
guitar 2
E---------------------
B---------------------
G---------------------
D-7-5---5-------------
A-----7---7-6-5-3-3---
E-------------------5-

now together
E-----------------
B-----------------
G-----------------
D---------------3-
A-----0---3-2-0---
E-0-3---0---------


Jess

  • Guest
Melvins Lyrics + Tab of the Day
« Reply #19 on: December 03, 2004, 11:12:15 AM »
i don't have a problem with you doing your thing just please stop posting em on the forum like it's stuff we want to discuss.  instead a post like "i have gathered the lyrics to houdini and brian put them on the lyrics page"
would be much better, imo.

idiotboy

  • Guest
Melvins Lyrics + Tab of the Day
« Reply #20 on: December 03, 2004, 09:06:44 PM »
Quote from: steve ludlow
FUCKING CHRIST STOP POSTING THIS SHIT.  NOBODY CARES.  WRITE ALL THESE LYRICS IN A LITTLE BOOK AND KEEP THEM FOR YOURSELF BECAUSE NOBODY CARES!!!!!!!!!!!!!!


love,  
  your mama


Like Steve, Moanin' Ludlow!

Offline Green Honey

  • Moderator
  • godfather of grunge
  • *******
  • Posts: 1631
  • Gender: Male
    • View Profile
    • bookface
Melvins Tab
« Reply #21 on: December 05, 2004, 09:44:11 AM »
Jello Biafra & The Melvins

Offline Green Honey

  • Moderator
  • godfather of grunge
  • *******
  • Posts: 1631
  • Gender: Male
    • View Profile
    • bookface
Melvins Tab
« Reply #22 on: December 05, 2004, 03:42:46 PM »
"Enchanted Thoughtfist"


Intro
 

Offline Green Honey

  • Moderator
  • godfather of grunge
  • *******
  • Posts: 1631
  • Gender: Male
    • View Profile
    • bookface
Melvins Lyrics + Tab of the Day
« Reply #23 on: December 06, 2004, 02:39:50 PM »
This one's for Steve!

If I Had An Exorcism


Intro [x = Finger mute.]

Offline Green Honey

  • Moderator
  • godfather of grunge
  • *******
  • Posts: 1631
  • Gender: Male
    • View Profile
    • bookface
Melvins Tab
« Reply #24 on: December 16, 2004, 09:58:56 AM »
I just noticed this tab needed some corrections.

Magic Pig Detective


(3m:33s)

Offline Green Honey

  • Moderator
  • godfather of grunge
  • *******
  • Posts: 1631
  • Gender: Male
    • View Profile
    • bookface
Melvins Tab
« Reply #25 on: December 16, 2004, 04:54:32 PM »
Boris
(bass)

Drop D Tuning

Intro (Play once only):
G|----------------------------
D|----------------------------
A|----------------------------
D|8-7-7-7-8-7-7-7-9b------8---

Then
G|----------------------------------
D|----------------------------------
A|----------------------------------
D|8-7-7-8-7-7-7-8-7-7-7-9b------8---

Repeat until
"It's like sin"

G|-------
D|-------
A|-------
D|8-7-7-8


Bridge:
G|-----------------------------
D|-----------------------------
A|-----------------------------
D|7-9-8-7-9-8-9-8-9-8-9-8-8-9-8

G|--------------------------------
D|--------------------------------
A|--------------------------------
D|7-7-8-7-7-8-7-7-8-7-7-8-7-7-9---

G|-----------------------
D|-----------------------
A|-----------------------
D|7-9-8-7-9-8-9-8-9-8-9-8

G|--------------------------------
D|--------------------------------
A|--------------------------------
D|7-7-8-7-7-9(hold)------------7-8

Back to main riff.

Offline anaconda

  • snake in the grass
  • Global Moderator
  • MITROWSKI!!!
  • *******
  • Posts: 17008
    • View Profile
    • Brad Black Design Group
Melvins Lyrics + Tab of the Day
« Reply #26 on: January 08, 2005, 09:41:05 AM »
one correction:

When man's only distant relative
"Has to send it on his own"

should be:

"Has descended on his own"

DubEMC

  • Guest
Melvins Lyrics + Tab of the Day
« Reply #27 on: January 08, 2005, 08:57:42 PM »
Yo Green, you sending me discs anytime soon?

Offline anaconda

  • snake in the grass
  • Global Moderator
  • MITROWSKI!!!
  • *******
  • Posts: 17008
    • View Profile
    • Brad Black Design Group
Melvins Lyrics + Tab of the Day
« Reply #28 on: January 08, 2005, 09:13:40 PM »
is he taking his sweet time too?  :lol:
mine finally went in the mail on friday to you
with a little booklet full of pics. we had fun making
them too.

DubEMC

  • Guest
Melvins Lyrics + Tab of the Day
« Reply #29 on: January 08, 2005, 09:15:43 PM »
Thanks Conda! Looking forward to it.