Author Topic: Melvins Tabs  (Read 93897 times)

0 Members and 1 Guest are viewing this topic.

Offline TJP

  • Fears SNIVLEM
  • Posts: 48
  • Gender: Male
    • View Profile
Re: Melvins Lyrics + Tab of the Day
« Reply #180 on: November 29, 2006, 03:54:59 PM »
This one's for Steve!

If I Had An Exorcism


Intro [x = Finger mute.]
   1   2   3   4   1   2   3   4     1   2   3   4   1   2   3   4     
 e---------------------------------|---------------------------------
 b---------------------------------|---------------------------------
 g---------------------------------|---------------------------------
 d-x-x-x-x---------x-x-------------|-x-x-------------x-x-----x-x-----
 a-x-x-x-x---------x-x-------------|-x-x-------------x-x-----x-x-----
 e-x-x-x-x---------x-x-------------|-x-x-------------x-x-----x-x-----

 e---------------------------------|---------------------------------
 b---------------------------------|---------------------------------
 g---------------------------------|---------------------------------
 d-----------------x-x-x-x---------|-----------------x-x-x-----------
 a-----------------x-x-x-x---------|-----------------x-x-x-----------
 e-----------------x-x-x-x---------|-----------------x-x-x-----------
                                                            "Like some-
body took a coathanger"   
 e---------------------------------|---------------------------------
 b---------------------------------|---------------------------------
 g---------------------------------|---------------------------------
 d-----------------x-x-x-----------|-----------------x-x-x-----------
 a-----------------x-x-x-----------|-----------------x-x-x-----------
 e-----------------x-x-x-----------|-----------------x-x-x-----------

 e---------------------------------|---------
 b---------------------------------|---------
 g---------------------------------|---------
 d-----------------x-x-x-----------|---------
 a-----------------x-x-x-----------|---------
 e-----------------x-x-x-----------|---------

 e---------------------------------|---------------------------------
 b---------------------------------|---------------------------------
 g---------------------------------|---------------------------------
 d---------------------------------|---------------------------------
 a-3-3-3---7-----------7-----------|-3-3-3---7-----------7-----------
 e-1-1-1---0-----------0-----------|-1-1-1---0-----------0-----------
   
 e---------------------------------|-----------------------------
 b---------------------------------|-----------------------------
 g---------------------------------|-----------------------------
 d---------------------------------|-----------------------------
 a-3-3-3---7-----------3-----------|---------7-6-7-6-7-6-4-------
 e-1-1-1---0-----------1-----------|---------5-4-5-4-5-4-2-------
   
 e---------------------------------|-------------
 b---------------------------------|-------------
 g---------------------------------|-------------
 d---------------------------------|-------------
 a-4---5---3---8-------5-------7---|-----5-------
 e-2---3---1---6-------3-------5---|-----3-------
 
This isn't right but it sounds ok
 e---------------------------------|---------------------------------
 b---------------------------------|---------------------------------
 g---------------------------------|---------------------------------
 d-------3^----------------3^------|-------2^------------------------
 a---------------------------------|---------------------------------
 e-1-1-0-----0-0-0-0-1-0-0---0-0-0-|-0-0-0-----0-0-0-0-0-0-0-0-------

Play these two bars a few times
 e-0---0---0---0---0---0---0---0---|-0---0---0---0---0---0---0---0---
 b-6^--6---6---6^--6---6---6---6---|-6^--6---6---6---6---6---6---8^--
 g---------------------------------|---------------------------------
 d---------------------------------|---------------------------------
 a---------------------------------|---------------------------------
 e---------------------------------|---------------------------------
   Harmonics....

 e-0---0---0---0---0---0---0---0---|-0---0---0---0---0---0---0---0---
 b-5^--5---5---5---5---5---5---5^--|-5^--5---5---5---5---5---5---5^--
 g---------------------------------|---------------------------------
 d---------------------------------|---------------------------------
 a---------------------------------|---------------------------------
 e---------------------------------|---------------------------------
   Harm...

Keep playing this until the song ends:

 e-0---0---0---0---0---0---0---0---|-0---0---0---0---0---0---0---0---
 b-5---5---5---5---5---5---5---5---|-5---5---5---5---5---5---5---5---
 g---------------------------------|---------------------------------
 d---------------------------------|---------------------------------
 a---------------------------------|---------------------------------
 e---------------------------------|---------------------------------
   Harm...


Bass outro:

 g---------------------------------------|
 d---------------------------------------|
 a-3-3-3-3-2-2-2-2-----------------------|
 e-----------------2-2-2-2-3-3-2-3-2-3-0-|

 Play that a number of times.

then:

 g---------------------------------|--------------------------------|
 d---------------------------------|--------------------------------|
 a-3-3-3-3-------------------------|--------------------------------|
 e---------3-3-3-3-5-5-5-5-5-5-5-5-|3-3-3-3-3-3-3-3-2-2-2-2-2-2-2-2-|

 g---------------------------------
 d---------------------------------
 a---------------------------------
 e-0-ring--------------------------

Some Parts of this tab dont sound right so i changed the parts to what i can hear [does anyone agree?]

Offline Dr Geek

  • Fears SNIVLEM
  • Posts: 72
    • View Profile
Re: Melvins Tabs
« Reply #181 on: December 07, 2006, 11:06:15 AM »
Am I the only one who can't see the Senile Animal tabs correctly?

Offline Dead Guy Ale

  • former bassist
  • Posts: 14
  • Gender: Male
    • View Profile
Re: Melvins Tabs
« Reply #182 on: January 01, 2007, 01:29:23 PM »
Anyone out there got "See how pretty, See how smart"  off the Maggot figured out  ?


/besides Buzz

Offline Mash

  • former bassist
  • Posts: 14
  • Gender: Male
  • STAMPEDE!
    • View Profile
Re: Melvins Tabs
« Reply #183 on: January 29, 2007, 04:30:58 AM »
Hey guys, I wrote a tab for Big Business' cover of the Devo track "Be Stiff".
You can find it here: http://www.ultimate-guitar.com/tabs/b/big_business/be_stiff_btab.htm
Keep an eye out for my Big Business fan site, it'll be up in a couple of weeks!
Cheers
Matt

Offline Pringles

  • merch vulture
  • ****
  • Posts: 287
    • View Profile
Re: Melvins Tabs
« Reply #184 on: March 13, 2007, 11:05:03 PM »
I'm searching for Halo of fly, Melvins version.
Luck is a residue of design

norecess

  • Guest
Re: Melvins Tabs
« Reply #185 on: March 14, 2007, 01:44:08 AM »
Keep an eye out for my Big Business fan site, it'll be up in a couple of weeks!

Are you sure!?

Offline TJP

  • Fears SNIVLEM
  • Posts: 48
  • Gender: Male
    • View Profile
Re: Melvins Tabs
« Reply #186 on: April 13, 2007, 10:58:38 AM »
as it was - mELVInS

tabbed by TJP


 |riff1                    |riff2                         |riff3
e|-------------------------|------------------------------|----------------------------------------------|
b|-------------------------|------------------------------|----------------------------------------------|
g|-------------------------|---------xxx------------------|--------xxx-----------------------------------|
d|-------------------------|---------xxx---------------54-|--------xxx-----------54----------------------|
a|-4-444-4-444-4-444-------|-4-444-4-xxx44-4-22-432-54-32-|-4-444-4xxx444-432-54-32-55-87-34--4-45425~~~~|
e|-2-222-2-222-2-222-3~~~~-|-2-222-2-xxx22-2-00-210-32----|-2-222-2xxx222-210-32----33-65-12--2-23203~~~~|
     ...   ...   ...           ...      ..                    ...


 |riff4                   x4  | riff5                |fill1     |
e|----------------------------|----------------------|----------|
b|----------------------------|----------------------|----------|
g|----------------------------|----------------------|----------|
d|-------------------------54-|----------------------|----------|
a|-4-444-4-444-4----432-54-32-|-55-87-34--4-45425~~~~|-55-87-22-|
e|-2-222-2-222-2----210-32----|-33-65-12--2-23203~~~~|-33-65-00-|
     ...   ...


        |riff6                                   x2 |
e|------|-------------------------------------------|
b|------|-------------------------------------------|
g|------|-------------------------------------------|
d|-9----|---x9-76---67---x9-------x9-76---67-|-x9---|
a|-7-9--|-2-x7-54-7-45-2-x7-9---2-x7-54-7-45-|2x7-9-|
e|---7--|-0-------5----0----7~~~0-------5----|0---7-|
                                             |___dont play this part the 2nd time


     
 |riff7                                   x2 | fill2     |
e|-------------------------------------------|-----------|
b|-------------------------------------------|-----------| Then play riff6 like before
g|-------------------------------------------|-----------| then play riff7 until the end
d|-------------------------------------------|--x9-------|
a|-77-7-777-78-88-8-8888-87-77-7-7777-78~~---|-2x7-9-----|
e|-55-5-555-56-66-6-6666-65-55-5-5555-56~~~~~|-0---7~~~~-|
   ..   ...    ..   ....    ..   ....

Offline TJP

  • Fears SNIVLEM
  • Posts: 48
  • Gender: Male
    • View Profile
Re: Melvins Tabs
« Reply #187 on: May 08, 2007, 01:53:14 PM »
Melvins-its shoved

Tabbed by TJP
         
 
[00.31]        |[00:45]          x4|
e|-------------|-------------------|
b|-------------|-------------------|
g|--9~~~~~~~~~-|-99p77p0-----------|
d|-------------|--------99p77p0----|
a|-------------|----------------7~-|
e|-------------|-------------------|
 
 
e|-------------------------------------------------------------------|
b|-------------------------------------------------------------------|
g|-------------------------------------------------------------------|
d|---------------------------------------2-----2-----2-----2---2---2-|
a|-7-----6-----5-----4-----3-------2-----2-----2-----2-----2---2---2-|
e|---000---000---000---000---00000---000---000-0-000-0-000-0-0-0-0-0-|
 
 
 [verse]
e|---------------------------------|
b|---------------------------------|
g|---------------------------------|
d|-----------------------2-2-------|
a|-2-2-2-4-4-5-5---5-5-5-0-0-2-2-5-|
e|-0-0-0-0-0-3-3-0-3-3-3-----0-0-3-|
   . . . . . . . . . . .     . . .
 
                 |                                 x3|
e|---------------|-----------------|-----------------|-----------------|
b|---------xxxxx-|-----------------|-----------------|-----------------|
g|---------xxxxx-|-----------------|-----------------|-----------------|
d|---------xxxxx-|-2-2---2---------|-----------------|-2-2---2---------|
a|-2-2-----------|-0-0---0---------|-2-2-2-4-4-5-5---|-0-0---0---------|
e|-0-0-3-0-------|-----3---3-0-3-0-|-0-0-0-0-0-3-3-0-|-----3---3-0-3-0-|
 
 
e|-----------------------------|
b|-----------------------------|
g|-----------------------------|
d|-2-2--2-2-2-5--5-5-5-5-5-5-5-|
a|-2-2--2-2-2-5--5-5-5-5-5-5-5-|
e|-0-0--0-0-0-3--3-3-3-3-3-3-3-|
 
 
e|--------------------------------|
b|--------------------------------|
g|--------------------------------|
d|--------------------------------|
a|2-2-2-2-2-2-2-2-2-2-2-2-2-2-2-2-|
e|0-0-0-0-0-0-0-0-0-0-0-0-0-0-0-0-|
 
 
 [2:17]
e|---------------------------------|
b|---------------------------------|
g|---------------------------------|
d|-----2-----2---------------------|
a|-------------5-0-2-5-2-0-5-4-5-4-|
e|-0-0---0-0-----------------------|
 
 
[2:21]                        x2|
e|------------------------------|
b|------------------------------|
g|------------------------------|
d|---9----9-7-----7-----7-6-7-6-|
a|---7----7-5-7-9-5-9-7-5-4-5-4-|
e|00---00-----5-7---7-5---------|
 
 
[outro]
e|-------------------------------|
b|-------------------------------|
g|-------------------------------|
d|---------4-5-6-5---------4-5---|
a|-7-6-3-4-2-3-4-3-6-5-3-4-2-3-2-|
e|-5-4-1-2---------4-3-1-2-----0-|
 
FIN.

Offline TJP

  • Fears SNIVLEM
  • Posts: 48
  • Gender: Male
    • View Profile
Re: Melvins Tabs
« Reply #188 on: May 12, 2007, 12:49:02 PM »
i just made a couple of changes

Vile-Melvins


|---|
|---|
|---|
|-0-|
|-0-|
|-0-|
           
|---------------------------------------------------------------|
|---------------------------------------------------------------|
|---------------------------------------------------------------|
|-3^~~-0~~-0-0-3^~~-0-3^~~-0~~-6~~-5~~-0-0-3^~~-0-0-6~~---------| x2
|-3^~~-0~~-0-0-3^~~-0-3^~~-0~~-6~~-5~~-0-0-3^~~-0-0-6~~-6~~-5~~-|
|-3^~~-0~~-0-0-3^~~-0-3^~~-0~~-6~~-5~~-0-0-3^~~-0-0-6~~---------|
                                       PM.      PM.
                     
                                              1         2
|-------------------------------------------|---------|-----|
|-------------------------------------------|---------|-----|
|-------------------------------------------|---------|-----|
|-0-0-0-0-----3~~-0-0-0-6~~-5~~-6~~-3-0-3-0-|-0-0-----|-3-0-|
|-0-0-0-0-5~~-3~~-0-0-0-6~~-5~~-6~~-3-0-3-0-|-0-0-6~~-|-3-0-|
|-0-0-0-0-----3~~-0-0-0-----5~~-6~~-3-0-3-0-|-0-0-----|-3-0-|
  PM.....                                     PM..      PM..
                         
Verse -

|---------|
|---------|
|---------|
|-0-0-0-0-| repeat a lot of times
|-0-0-0-0-|
|-0-0-0-0-|
  PM.....
             
             
|-----|
|-----|
|-----|
|-0~~-|
|-0~~-|
|-0~~-|
w/bar
             
               

|---------------------------------|--------|
|---------------------------------|--------|
|---------------------------------|--------|
|---------------------------------|--------|
|-6~~---5---------6~-------5~-----|--------|
|----00---3~~0-00---5-6-66---3~~0-|-00-----|
                                  | ^^only played the first time
         
           
|---------|
|---------|
|---------|
|-0-0-0-0-| repeat a lot of times
|-0-0-0-0-|
|-0-0-0-0-|
  PM.....
             
|---------------|
|---------------|
|---------------|
|-8-8-8-8-8-6-7-|
|-6-6-6-6-6-4-5-|
|---------------|
                   
|---------|
|---------|
|---------|
|-0-0-0-0-| repeat a lot of times
|-0-0-0-0-|
|-0-0-0-0-|
  PM.....
             
|---------------|
|---------------|
|---------------|
|-8-8-8-8-8-6-7-|
|-6-6-6-6-6-4-5-|
|---------------|
         

FIN.

Offline TJP

  • Fears SNIVLEM
  • Posts: 48
  • Gender: Male
    • View Profile
Re: Melvins Tabs
« Reply #189 on: May 12, 2007, 03:52:31 PM »
Full & Correct version

Pitfalls In Serving Warrants

tabbed by TJP



intro/riff 1[distortion]

   1   +   2   +   3   +   4   +     1   +   2   +   3   +   4   +   
e ---------------------------------|---------------------------------|
b ---------------------------------|---------------------------------|
g ---------------------------------|---------------------------------|
d ---------------------------------|---------------------------------|
a ---------------------------------|---------------------------------|
E -0-0-0-0-0-0-7-\\----3-------3-/-|-5-----------1-------0-------1---|
                                                               



e|---------------------------------------------------------------------------|
b|---------------------------------------------------------------------------|
g|---------------------------------------------------------------------------|
d|---------------------------------------------------------------------------|
a|-5/7-7--7-7-7----7-7-7/9-9-99999999\3--3-3----3-3---3/7-7-7----7-7---7/9-3-|
E|-3/5-5--5-5-5-00-5-5-5/7-7-77777777\1--1-1-00-1-1-0-1/5-5-5-00-5-5-0-5/7-1-|



                           
 [clean]
e|---------------------------------|---------------------------------|
b|---------------------------------|---------------------------------|
g|---------------------------------|---------------------------------|
d|---------------------------------|---------------------------------|
a|---------------------------------|---------------------------------|
E|-0-0-0-0-0-0-7-\\----3-------3-/-|-5-----------1-------0-------1-0-|



                 
                |                           x2| 
e|--------------|-----------------------------|
b|--------------|-----------------------------|
g|--------------|-----------------------------|
d|--------------|-----------------------------|
a|--------------|----7------5------2-2----2-2-|
E|-0-0-----0-0--|-------8------5--------------|


                             


outro x3
   1   +   2   +   3   +   4   +     1   +   2   +   3   +   4   +   
e ---------------------------------|---------------------------------|
b ---------------------------------|---------------------------------|
g ---------------------------------|---------------------------------|
d ---------------------------------|---------------------------------|
a -----7-6-----5-----------5-------|---------------------------------|
E -0-------7-------7---6-----6-3---|-4b-ring-------------------------|


                                         

   1   +   2   +   3   +   4   +     
e ---------------------------------|
b ---------------------------------|
g ---------------------------------|
d ---------------------------------|
a ---------------------------------|
E -4b6-ring------------------------|



Offline TJP

  • Fears SNIVLEM
  • Posts: 48
  • Gender: Male
    • View Profile
Re: Melvins Tabs
« Reply #190 on: May 16, 2007, 12:19:01 PM »
Never seen this tabbed correctly on guitar before so i thought i would give it a go


Influence of Atmosphere - Melvins

Tabbed by TJP
                                   
[The dots are P.M.]
                               
                                 
~~~~~~~~~~~~~~~~~~~~~~I N T R O~~~~~~~~~~~~~~~~~~~~~~~~~~~~~~~~~~~~~~~

e|--------------------------------------|-------------------------------|
b|--------------------------------------|-------------------------------|
g|--------------------------------------|-------------------------------|
d|--------0------0-------0------0-------|-3-2-3-2-3-4-3-4-3-2-3-2--0----|
a|-0------0---6^-0---6-6-0----6-0---6-6-|-3-2-3-2-3-4-3-4-3-2-3-2--0----|
D|-0------0---6^-0---6-6-0----6-0---6-6-|-3-2-3---3---3---3-2-3-2--0----|
                                               |__________|
                                                play around
                                                with the P.H.   

e|------------|
b|------------|
g|------------|
d|------------|
a|-6^-0---6-6-|
D|-6^-0---6-6-|
                                                                                   
                                                                     
e|-------------------------------|----------------|
b|-------------------------------|----------------|
g|-------------------------------|----------------|
d|-3-2-3-2-3-4-3-4-3-2-3-2--0----|----------------|
a|-3-2-3-2-3-4-3-4-3-2-3-2--0----|-6^-0---6-6-0---|
D|-3-2-3---3---3---3-2-3-2--0----|-6^-0---6-6-0---|
                                                                                                   
                                                                                                                 
                                                                                                 
~~~~~~~~~~~~~~~~~~~~~~~~~~~V  E  R  S  E~~~~~~~~~~~~~~~~~~~~~~~~~~~~~~~~~~~~~~~~~~~

e|-------------------------------------------------------------------------------------|
b|-------------------------------------------------------------------------------------|
g|-------------------------------------------------------------------------------------|
d|-----3------------------3------------------3-----------------3-------------5-5-----3-|
a|-2-2-3--------------2-2-3-2-0-1-2-0-3--2-2-3-2-0-1-2-0-3-2-2-3-2-0-1-2-0-3-5-5-0-0-3-|
d|-2-2---2-0-1-2-0-3--2-2---2-0-1-2-0-3--2-2---2-0-1-2-0-3-2-2---2-0-1-2-0-3-5-5-0-0-3-|
   . . |____________|   .   |__________| . .   . . . . . . . .   . . . . . .     . .
        use a bit of         use a bit
           P.H.              of P.H.


                                                       
e|------------------------------------------------------|
b|--------------------------------------xx----xx--------|
g|--------------------------------------xx----xx--------|
d|-----------------3-------------5-5-----3-3------0-----|
a|-2-0-1-2-0-3-2-2-3-2-0-1-2-0-3-5-5-0-0-3-3------0-----|
d|-2-0-1-2-0-3-2-2---2-0-1-2-0-3-5-5-0-0-3-3------0-----|
   . . . . . . . .   . . . . . .     . .
 

                                                                           

~~~~~~~~~~~~~~~~~~~~~O U T R O~~~~~~~~~~~~~~~~~~~~~~~~~~~~~~~~~~~~~~~~~
                |                          x2|
e|--------------|----------------------------|------------------------|
b|--------------|----------------------------|------------------------|
g|--------------|----------------------------|------------------------|
d|--------------|----------------------------|------------------------|
a|--------------|-0-0-3-0-2--2-2-2-0-2-3-1-0-|-0-0-3-0-2--2-2-2-0---3-|
d|-2-0-2-3-1-0--|-0-0-3-0-2--2-2-2-0-2-3-1-0-|-0-0-3-0-2--2-2-2-0---3-|
                  . .   .    . .               . .   .    . .



FIN.

Offline TJP

  • Fears SNIVLEM
  • Posts: 48
  • Gender: Male
    • View Profile
Re: Melvins Tabs
« Reply #191 on: May 17, 2007, 12:03:45 PM »
the tabs for this never sounded right so i thought i would give it a go
i dont know if this is the way Buzz plays it but i think it sounds ok
     
Agonizer- mELVInS
           
               
Tabbed by TJP
           
             
  ~~~~~~~~~~~~~~~~~~~~~~~~~~~~~~~~~~I N T R O~~~~~~~~~~~~~~~~~~~~~~~~~~~~~~~~~~~~~~~~~~~
e|----------------------------------------------------------------------------------------------|
b|----------------------------------------------------------------------------------------------|
g|-----------------------------------------------5------------------------------------------8-7-|
d|-4----------5------------4----------7-----------6~-------------5------------4-------4---------|
a|-4-4-5-6--6-5-4-5-6-5--5-4-4-5-6--6-5-0-0-0--0-----0-0-0-0-0-6-5-0-0-0--6-5-4-4h5-x-4-4-5-----|
D|---4-5-6--6---4-5-6-5--5---4-5-6--6---0-0-0--0-----0-0-0-0-0-6---0-0-0--6-5---4h5-x---4-5-----|
                                        . . .  .     . . . . .     . . .  .                 P.H
                   
                     
                         
  ~~~~~~~~~~~~~~~V E R S E~~~~~~~~~~~~~~~~~~~~~~~~  X5|
e|----------------------------------------------------|
b|----------------------------------------------------|
g|----------------------------------------------------|
d|-------------6-4-4-4--4-5-0-------------------6-5-0-|
a|-0-0-0--0--0-6-4-4-4--4-5-0--0-0-0--0-0-0--0--6-5-0-|
D|-0-0-0--0--0---4-4----4-5-0--0-0-0--0-0-0--0--6-5-0-|
   . . .  .  .                 . . .  . . .  .
           
             
 ~~~~~~~~~~~~~O U T R O~~~~~~~~~~~~~~~~  X2|
e|-----------------------------------------|
b|-----------------------------------------|
g|-----------------------------------------|
d|-----7---7---7------------8--8~-8--------|
a|---7---7---7---7--------8----8~---8------|
D|-7---------------0-00-8-------------0-00-|
                     ..                 ..

         
 FIN.

sebo

  • Guest
Re: Melvins Tabs
« Reply #192 on: May 17, 2007, 12:12:15 PM »
Nazi?  :?

Offline TJP

  • Fears SNIVLEM
  • Posts: 48
  • Gender: Male
    • View Profile
Re: Melvins Tabs
« Reply #193 on: May 17, 2007, 12:32:51 PM »
 :shock:

Its just a picture

but what do you think of the tabs?

norecess

  • Guest
Re: Melvins Tabs
« Reply #194 on: May 17, 2007, 01:31:12 PM »