Author Topic: Melvins Tabs  (Read 79395 times)

0 Members and 1 Guest are viewing this topic.

Offline anaconda

  • snake in the grass
  • Global Moderator
  • MITROWSKI!!!
  • *******
  • Posts: 17008
    • View Profile
    • Brad Black Design Group
Melvins Lyrics + Tab of the Day
« Reply #30 on: January 08, 2005, 09:21:51 PM »
we actually went thru two solid weeks of blizzards
and freezing rain, nothing better to do!! haha

Offline Rembrandt Pussyhorse

  • knows moss
  • *****
  • Posts: 445
  • Gender: Male
    • View Profile
Melvins Lyrics + Tab of the Day
« Reply #31 on: January 09, 2005, 06:50:54 AM »
Ive found some lyrics for HAT right here that seem pretty acurate:
http://www.dyingdays.net/Melvins/Letras_Hostile_Ambient_Takeover.html
I could catch a monkey

Offline Rembrandt Pussyhorse

  • knows moss
  • *****
  • Posts: 445
  • Gender: Male
    • View Profile
Melvins Lyrics + Tab of the Day
« Reply #32 on: January 09, 2005, 07:08:37 AM »
..they have a lot more actually http://www.dyingdays.net/Melvins/discografia.html

click "letras" above any album to get to the lyrics
I could catch a monkey

Offline Green Honey

  • Moderator
  • godfather of grunge
  • *******
  • Posts: 1631
  • Gender: Male
    • View Profile
    • bookface
Melvins Tab
« Reply #33 on: January 09, 2005, 07:52:16 AM »
Cow

Riff 1 - play 2x
e|--------------------------------
b|--------------------------------
g|--------------------------------
d|-----------------2------2-------
a|-2-0-------------2------2-------
e|-----2-0-2-0-3^--0------0---0-0-

e|--------------------------------
b|--------------------------------
g|--------------------------------
d|-----------------2------2-------
a|-------2---------2------2-------
e|-3-3-5---5-3-5-5-0------0---0-0-

Riff 2 - play 4x
e|------------------------------------------------------
b|------------------------------------------------------
g|-5----------------------------------------------------
d|-5-----------------------------------2----------------
a|-3-----------------------------------2----------------
e|-------------------------------------0----------------

Riff 3 - play 4x
e|---------------------------------------------------------------
b|---------------------------------------------------------------
g|---------------------------------------------------------------
d|---------------------------------------------------------------
a|-2---2-------2-------2-------3-------2---2-------3-3---3-x-3---
e|-0---0---0-0-0---0-0-0---0-0-1---0-0-0---0---0-0-1-1-0-1-x-1---
           . .     . .     . .     . .         . .     .
e|---------------------------------------------------------------
b|---------------------------------------------------------------
g|---------------------------------------------------------------
d|-----------------------------------------------------------3---
a|-2---2-------2-------2-------3-------2---2-------3-3---3-x-1---
e|-0---0---0-0-0---0-0-0---0-0-1---0-0-0---0---0-0-1-1-0-1-x-----
           . .     . .     . .     . .         . .     .

klump

  • Guest
Melvins Lyrics + Tab of the Day
« Reply #34 on: February 08, 2005, 01:45:17 AM »
honey, can you tab night goat ?
im trying to lpay it with the drummer in my band but he says that something is missing(i think so to) and i dont know all the guitar stuff.
i mostly play the bass parts :)

Offline Green Honey

  • Moderator
  • godfather of grunge
  • *******
  • Posts: 1631
  • Gender: Male
    • View Profile
    • bookface
Melvins Tab
« Reply #35 on: June 02, 2005, 09:53:48 AM »
Lizzy


tabbed by baggins + greenhoney
 
Standard Tuning
 
~ = Bend
\ = Slide Down
/ = Slide Up
()= Harmonics

VERSE
E ----------------
B ----------------
G --2-------------
D --2---2--4--4---
A --0---0--0--3---
E ----------------
 
CHORUS

E ----------------------------------------------------------
B ----------------------------------------------------------
G -----------7-6-----6---6-6-6------------------------------
D -2-2-2-2---7-6-----6---6-6-6------------------------------
A -2-2-2-2---5-4-----4---4-4-4------------------------------
E -0-0-0-0--------------------------------------------------
 
SOLO
E ----------------------------------------------------------
B -------------5~~-----------7~~~----8\7--------------------
G ---------5---5~~---5---5-x-7~~~----8\7--5-----------------
D -2/7---7---x---------7---------------------7--5-7---------
A -0--------------------------------------------------------
E ----------------------------------------------------------

END

E ------------------------------------------------
B ------------------------------------------------
G ------------------------------------------------
D –(7)-------------(7)-------------(7)------------
A –----(7)-(12)--------(7)-(12)--------(7)-(12)---
E ------------------------------------------------


E ----------------------------------------------------------
B ------------------------(12)------------------------------
G -------------------(12)-----------------------------------
D –(7)----------(12)----------------------------------------
A –----(7)-(12)---------------------------------------------
E -----------------------------(12)-------------------------

Offline Green Honey

  • Moderator
  • godfather of grunge
  • *******
  • Posts: 1631
  • Gender: Male
    • View Profile
    • bookface
Melvins Tab
« Reply #36 on: June 13, 2005, 06:21:35 PM »
The Bloated Pope

tune down to C

riff 1
-------------------------------------------------------------
-------------------------------------------------------------
-------------------------------------------------------------
------------------------------7-----------------5--------7---
-------------3----------------5-----------------3--------5---
0-0---0---00-1-0-0-0---0---00----0-0-0-0-0-0-0-----0-0-3-----

riff 2
-------------------------------------------------------------
-------------------------------------------------------------
--------------------------------555555--------555555---------
0--0-0--3---3-33-55555556---6-66------6---6-66------6-5-6-3--

Offline Green Honey

  • Moderator
  • godfather of grunge
  • *******
  • Posts: 1631
  • Gender: Male
    • View Profile
    • bookface
Melvins Tab
« Reply #37 on: June 13, 2005, 06:31:44 PM »
At The Stake


  (4/4)

INTRO: Build feedback in the key of E.


 Intro Riff

    1  +  2     3     4  +    1     2     3     4     
 E|-------------------------|-------------------------|
 B|-------------------------|-------------------------|
 G|-------------------------|-------------------------|
 D|-2--2--------------2--2--|-------------------------|
 A|-2--2--Ring--------2--2--|--Ring-------------------|  x4
 E|-0--0--------------0--0--|-------------------------|

    1  +  2  +  3  +  4  +    1     2     3     4     
 E|-------------------------|-------------------------|
 B|-------------------------|-------------------------|
 G|-4/-5--5--5--5-----------|-------------------------|
 D|-4/-5--5--5--5--0--2--2--|-------------------------|
 A|-2/-3--3--3--3—-0--2--2--|--Ring + Bend Neck Down--|
 E|-------------------0--0--|-------------------------|


 Main Riff - play 4x without palm mute

    1  +  2  +  3  +  4       1     2     3     4  +   
 E|-------------------------|-------------------------
 B|-------------------------|-------------------------
 G|-------------------------|-------------------------
 D|-2--2-----2--2--4--5-----|-------------------5-----
 A|-2--2-----2--2--4--5-Ring...-----------------5-----
 E|-0--0-----0--0--2--3-----|-------------------3--0--

    1  +  2  +  3  +  4  +    1     2     3     4     
 E|-------------------------|-------------------------|
 B|-------------------------|-------------------------|
 G|-4/-5--5--5--5-----------|-------------------------|
 D|-4/-5--5--5--5--0--2--2--|-------------------------|
 A|-2/-3--3--3--3—-0--2--2--|--Ring + Bend Neck Down--|
 E|-------------------0--0--|-------------------------|


This is the main riff also used for the Verse, palm muted.
       
The last time it's played before the bridge
 you rest for a bar after the playing the first bar.


Bridge

 E|-------------------------|-------------------------
 B|-------------------------|-------------------------
 G|-7—-7--7--7--7--7--7--7--|-7—-7--7--7--7--7--7-----
 D|-7—-7--7--7--7--7--7--7--|-7—-7--7--7--7--7--7--0--
 A|-5--5--5--5--5--5--5--5--|-5--5--5--5--5--5--5--0--
 E|-------------------------|-------------------------

    1  +  2  +  3  +  4  +    1     2     3     4     
 E|-------------------------|-------------------------|
 B|-------------------------|-------------------------|
 G|-4/-5--5--5--5--5-----4--|-------------------------|
 D|-4/-5--5--5--5--5--0--4--|--Ring-------------------|
 A|-2/-3--3--3--3--3--0--2--|-------------------------|
 E|-------------------------|-------------------------|


"Chased know any reason..."
    1     2  +  3  +  4  +    1  +  2  +  3     4     
 E|-------------------------|-------------------------|
 B|-------------------------|-------------------------|
 G|-------------------------|-------------------------|
 D|-2--------2--2-----3-----|----3--3--3--3-----3-----|
 A|-2--------2--2--0--3-----|----3--3--3--3-----3--0--|
 E|-0--------0--0--0--1-----|----1--1--1--1-----1--0--|

    1     2  +  3  +  4  +    1  +  2  +  3     4     
 E|-------------------------|-------------------------|
 B|-------------------------|-------------------------|
 G|-------------------------|-------------------------|
 D|-4----(4)----4-----5-----|----5--5--5--5--5--5-----|
 A|-4----(4)----4--0--5-----|----5--5--5--5--5--5--0--|
 E|-2----(2)----2--0--3-----|----3--3--3--3--3--3--0--|

    1     2  +  3  +  4  +    1  +  2  +  3     4     
 E|-------------------------|-------------------------|
 B|-------------------------|-------------------------|
 G|-------------------------|-------------------------|
 D|-2--------2--2-----3-----|----3--3--3--3-----3-----|
 A|-2--------2--2--0--3-----|----3--3--3--3-----3--0--|
 E|-0--------0--0--0--1-----|----1--1--1--1-----1--0--|

    1     2  +  3  +  4  +    1     2     3     4       1     2     3     4     
 E|-------------------------|-------------------------|-------------------------|
 B|-------------------------|-------------------------|-------------------------|
 G|-------------------------|-------------------------|-------------------------|
 D|-4----(4)----4-----5-----|-------------------------|-------------------------|
 A|-4----(4)----4--0--5-----|--Ring.....--------------|--(Ring).....------------|
 E|-2----(2)----2--0--3-----|-------------------------|-------------------------|


       Then Main Riff returns,
       the rest you can figure out by yourself

Offline Green Honey

  • Moderator
  • godfather of grunge
  • *******
  • Posts: 1631
  • Gender: Male
    • View Profile
    • bookface
Melvins Tab
« Reply #38 on: June 14, 2005, 04:35:41 AM »
"BUMBERSHOOT" by PORN (THE MEN OF)


Tune down a step (CBCFAD)

INTRO RIFF - play 4X:
D|-----------------------------------------------------------------
A|-----------------------------------------------------------------
F|-----------------------------------------------------------------
C|---------10~~~~~---------7~~~~~~---------10--7-------7---7---7---
B|-0---0---8~~~~~~-0---0---5~~~~~~-0---0---8---5-------5---5---5---
C|-0---0-----------0---0-----------0---0---------------------------
   .   .           .   .           .   .

RIFF 2:
D|-----------------------------------------------------------------
A|-----------------------------------------------------------------
F|-----------------------------------------------------------------
C|-----------------------------------------------------------------
B|-7---7---7---7---7---7-------15\3-------3---5---3---6-------5----
C|-7---7---7---7---7---7-------15\3-------3---5---3---6-------5----

RIFF 3 (MAIN RIFF):
D|-----------------------------------------------------------------
A|-----------------------------------------------------------------
F|-----------------------------------------------------------------
C|-----------------------------------------------------------------
B|-0-------0---3-------0---3---3---0-------0---3-------0---3---3---
C|-0-------0---3-------0---3---3---0-------0---3-------0---3---3---

"SOLO" rough estimation:
D|-------------------------------------------------
A|-------------------------------------------------
F|-17~~~~~-17~~~~~-17~~~~~-16~~~~~-16~~~~~-16~~~~~-
C|-15------15------15------14------14------14------
B|-------------------------------------------------
C|-------------------------------------------------

THEN VERSE

THEN FAST SECTION:
D|-------------------------------------|------------------
A|-------------------------------------|------------------
F|-------------------------------------|------------------
C|-2---2---2---2---2---2---2---2---2---|-5-----7-----5----
B|-0---0---0---0---0---0---0---0---0---|-3-----5-----3----
C|-------------------------------------|------------------

                                      -|------------------
                                      -|------------------
                                      -|------------------
                                      -|-3-----3-----5----
                                      -|-3-----3-----5----

BACK TO MAIN RIFF
AND SO ON.

Offline Green Honey

  • Moderator
  • godfather of grunge
  • *******
  • Posts: 1631
  • Gender: Male
    • View Profile
    • bookface
Melvins Tab
« Reply #39 on: June 14, 2005, 11:05:28 AM »
Here's a corrected version of With Teeth

Intro
e|---------------------------------|---------------------------------|
b|---------------------------------|---------------------------------|
g|---------------------------------|---------------------------------|
d|---------------------------------|---------------------------------|
A|-0-0-0-0-0-0-0-0-0-0-0-0-0-0-0-0-|-0-0-0-0-0-0-0-0-0-0-0-0-0-0-0-0-|
D|-0-0-0-0-0-0-0-0-0-0-0-0-0-0-0-0-|-0-0-0-0-0-0-0-0-0-0-0-0-0-0-0-0-|

Offline Green Honey

  • Moderator
  • godfather of grunge
  • *******
  • Posts: 1631
  • Gender: Male
    • View Profile
    • bookface
Melvins Tab
« Reply #40 on: June 14, 2005, 11:06:55 AM »
and this is my version of Teet

Play this 2x
b-------------------------|
g-------------------------|
d-----------------10------|
a-0-0-0-0-0-9-0-0-8-------|
d-0-0-0-0-0-9-0-0---------| Then 4 bars of feedback

Offline Pringles

  • merch vulture
  • ****
  • Posts: 287
    • View Profile
Melvins Lyrics + Tab of the Day
« Reply #41 on: June 14, 2005, 01:16:08 PM »
nice job
Luck is a residue of design

klump

  • Guest
Melvins Lyrics + Tab of the Day
« Reply #42 on: June 14, 2005, 02:13:12 PM »
that looks much better! thanks!  :)

Offline Green Honey

  • Moderator
  • godfather of grunge
  • *******
  • Posts: 1631
  • Gender: Male
    • View Profile
    • bookface
Melvins Lyrics + Tab of the Day
« Reply #43 on: June 15, 2005, 07:14:24 AM »
Welcome  8)

Offline Green Honey

  • Moderator
  • godfather of grunge
  • *******
  • Posts: 1631
  • Gender: Male
    • View Profile
    • bookface
Melvins Tab
« Reply #44 on: August 11, 2005, 02:53:43 PM »
Pitfalls In Serving Warrants

intro/riff 1