Author Topic: Melvins Tabs  (Read 93612 times)

0 Members and 1 Guest are viewing this topic.

Offline TommyHC

  • sun ra was right
  • *****
  • Posts: 737
  • Gender: Male
  • A Good Thing Gone
    • View Profile
    • Last.FM Profile
Re: Melvins Tabs
« Reply #195 on: May 23, 2007, 12:53:26 PM »
TJP you should Tab out "run around" from mangled demos and "Four letter woman" from leech.  :)
Anything Jesus Does I Can Do Better

Offline TJP

  • Fears SNIVLEM
  • Posts: 48
  • Gender: Male
    • View Profile
Re: Melvins Tabs
« Reply #196 on: May 24, 2007, 11:22:38 AM »
im ashamed to say i dont have the mangled demos but ive got "four letter woman" on vinyl so ill try

Offline TJP

  • Fears SNIVLEM
  • Posts: 48
  • Gender: Male
    • View Profile
Re: Melvins Tabs
« Reply #197 on: June 08, 2007, 01:52:16 PM »
Just made a couple of changes

                   
Green honey - Melvins
               
tabbed by TJP
               
Intro
                  |                   1,2|                           3|
|-----------------|-------------|--------|----------------------------|
|-----------------|-------------|--------|----------------------------|
|-----------------|-------------|--------|----------------------------|
|-----------------|-------------|--------|----------------------------|
|-1-0-0-1-0-0-1-0-|-12-0-0-12-0-|-3^-2-3-|-0-9-0-0-10-0-0-13-0-0-12~~-|
|-1-0-0-1-0-0-1-0-|-12-0-0-12-0-|-3^-2-3-|-0-9-0-0-10-0-0-13-0-0-12~~-|
                  | Play x 3
                                     
Verse
                1,2,4,5|                         3,6|
|-------------|--------|----------------------------|
|-------------|--------|----------------------------|
|-------------|--------|----------------------------|
|-------------|--------|----------------------------|
|-12-0-0-12-0-|-3^-2-3-|-0-9-0-0-10-0-0-13-0-0-12~~-|
|-12-0-0-12-0-|-3^-2-3-|-0-9-0-0-10-0-0-13-0-0-12~~-|
  Play x 6
   
     
|---------------------------------------------------------------------------|
|---------------------------------------------------------------------------|
|---------------------------------------------------------------------------|
|---------------------------------0-0---------------------------------------|
|---------------------------------0-0---------------------------------------|
|-1-0-0-1-0-0-1~~-0-1-0-0-1-0-0-1-0-0---0-0-1-0-0-1-0-0-1~~-0-1-0-0-1-0-0-1-|
                    . . . . . . .                             . . . . . . .
               
|------------------------------------------------------|
|------------------------------------------------------|
|------------------------------------------------------|
|--0-0-------------------------------------------------|
|--0-0-5---------------4-3----------3-------------2-1--|
|--0-0---4-5-5^~~~-5-5-----4-3-4~~4---2-3-3^~~3-3-2-1--|
   
   
Outro
                                 x2|
|----------------------------------|-----------------------------------------------------|
|----------------------------------|-----------------------------------------------------|
|---------------------7-6-7-6-7-6--|-----------------------------------------------------|
|---0-0-0-0-0-0-0-0-0-5-4-5-4-5-4--|-----0---------------------------0-------------------|
|---0-0-0-0-0-0-0-0-0--------------|-0-0-0-0-0-0-0-0-5-4-5-4-5-4-0-0-0-0-0-0-0-0-5-4-5-4-|
|---0-0-0-0-0-0-0-0-0--------------|-0-0-0-0-0-0-0-0-5-4-5-4-5-4-0-0-0-0-0-0-0-0-5-4-5-4-|
    . .   . . . . . .                . .                         . .   
             
               
|--------|
|--------|
|--------|
|-4--4-4-|
|-4--4-4-|
|-4--4-4-|

FIN.

Offline TJP

  • Fears SNIVLEM
  • Posts: 48
  • Gender: Male
    • View Profile
Re: Melvins Tabs
« Reply #198 on: June 09, 2007, 04:21:06 PM »
Never seen this tabbed on guitar so i thought i would give it a go


Heater moves and eyes - Melvins
         
tabbed by TJP
 
                       
intro                                x3|
e|-------------------------------------|-----------------------------------------|
b|-------------------------------------|-----------------------------------------|
g|-------------------------------------|-----------------------------------------|
d|-------------------------------------|--------------5-6-6~~~-------------------|
a|-2--2-2-2--8-7-2-2-2--8-7-2-2-2--8-7-|-2--2-2-2-4-5-3-4-6~~~-7-6-8-7-6-7-4-5-2-|
e|-0--0-0-0--6-5-0-0-0--6-5-0-0-0--6-5-|-0--0-0-0-2-3-----4~~~-5-4-6-5-4-5-2-3-0-|
        . .        . .        . .             . .               P. H.
             
                                        |        |                                 x3|
e|--------0----0--------0---------------|--------|-----------------------------------|
b|-------0-----0-----00--------00-------|--------|-----------------------------------|
g|-----------------------------44-xx-xx-|--------|-----------------------------------|
d|--------------------------------xx-xx-|-----x--|--------------------------------x--|
a|-2--2--2--2--2--2--2--2--2--2---xx-xx-|-8-7-x7-|-4-2-4-2-4-2-2-4-2-2-2-4-2/-8-7-x7-|
e|-0--0--0--0--0--0--0--0--0--0---xx-xx-|-6-5-x5-|-2-0-2-0-2-0-0-2-0-0-0-2-0/-6-5-x5-|
   .  .  .  .  .  .  .  .  .  .                      .   .   . .   . . . 
       
                                            x2|                                                        x2|
e|--------------------------------------------|----------------------------------------------------------|
b|--------------------------------------------|-0-2-5-7-8-8-8-8-8-8-8-8-8-8-8-8-9^-9^-9^-9^-9^-9^-9^--0--|
g|--------------------------------------------|-0-2-5-7-8-8-8-8-8-8-8-8-8-8-8-8-9^-9^-9^-9^-9^-9^-9^--0--|
d|---------------------------7^---------------|-------------------------------------------------------0--|
a|-2--2-2-2--8-7-2--2-2--8-7-5^-2--2-2--8-7-7-|-------------------------------------------------------0--|
e|-0--0-0-0--6-5-0--0-0--6-5----0--0-0--6-5-5-|----------------------------------------------------------|
       
         
                                 |                                  x3|
e|-------------------------------|------------------------------------|
b|-------------------------------|------------------------------------|
g|-------------------------------|------------------------------------|
d|-------------------------------|------------------------------------|
a|-2--2-2-4--4---4-5-7~~~~-2-----|-2-2-2-2-2-2-2-2-2-2-2-2-2-2--3-2-5-|
e|-0--0-0-2--2-0-2-3-5~~~~-0-----|-0-0-0-0-0-0-0-0-0-0-0-0-0-0--1-0-3-|
      . .
     
                                x3|
e|--------------------------------|-----------------------------------------------------------|
b|--------------------------------|-----------------------------------------------------------|
g|--------------------------------|-----------------------------------------------------------|
d|--------------------------------|-----------------------------------------------------------|
a|-2--2-2-4--4---4-5-7~~~2--3-2-5-|-2--2-2-4--4---4-5-7~~~~----7^~~~~^~~~~~~^~~8^~~~^~~~~~~~~~|
e|-0--0-0-2--2-0-2-3-5~~~0--1-0-3-|-0--0-0-2--2-0-2-3-5~~~~0-0-5^~~~~^~~~~~~^~~6^~~~^~~~~~~~~~|
           
         
                    x2|
e|--------------------|----------------------------------------------------------|
b|--------------------|----------------------------------------------------------|
g|--------------------|----------------------------------------------------------|
d|--------------------|----------------------------------------------------------|
a|-8-5-8-8--8-8-8-8-8-|-8-9-8--8-8--8-9-8--8-8--8-9-8--9-8-9-8-9-8-9-8--8^~~~~-8-|
e|-6-7-6-6--6-6-6-6-6-|-6-7-6--6-6--6-7-6--6-6--6-7-6--7-6-7-6-7-6-7-6--6^~~~~-6-|
                . .            . .         . .
               
FIN.

Offline TJP

  • Fears SNIVLEM
  • Posts: 48
  • Gender: Male
    • View Profile
Re: Melvins Tabs
« Reply #199 on: June 20, 2007, 08:09:35 AM »
Echo Head - MelviNs
tabbed by tjp 
                 
                          x2|
e|--------------------------|---|
B|--------------------------|---|
G|--------------------------|---|
D|--------------------------|---|
A|--0h3-0--0-0-1p0--0-0-3~~~|-0-|
D|--0h3-0--0-0-1p0--0-0-3~~~|-0-|
             
                                            x2|
e|--------------------------------------------|
B|---------------1x1-0x-1-2-2-1-0-1-2-0-2-3/--|
G|---------------1x1-0x-1-2-2-1-0-1-2-0-2-3/--|
D|--------------------------------------------|
A|-6x6-5-x5-----------------------------------|
D|-6x6-5-x5-6-7~~-----------------------------|         
             
                          x2|
e|--------------------------|-------|-------------------------|
B|--------------------------|-------|-------------------------|
G|--------------------------|---x-x-|-------------------------|
D|--------------------------|---x-x-|-------------------------|
A|--0h3-0--0-0-1p0--0-0-3~~~|-0-x-x-|-0h3-0--0-0-1p0--0-0-3-0-|
D|--0h3-0--0-0-1p0--0-0-3~~~|-0-----|-0h3-0--0-0-1p0--0-0-3-0-|
               
                     
e|-----------------------------------------------------------------------------------|
B|----------------1x1-0x-1-2-2-1-0-1-2-0-2-3-<Let Ring->>>>>>>>>>>>>>>>>>>>>>>>>>>>>-|
G|----------------1x1-0x-1-2-2-1-0-1-2-0-2-3-<--------->>>>>>>>>>>>>>>>>>>>>>>>>>>>>-|
D|-----------------------------------------------------------------------------------|
A|-6x6-5-x5--------------------------------------------------------------------------|
D|-6x6-5-x5-6-7~~--------------------------------------------------------------------|
         
--------------------------------------------------------------------------------------------------------------------------
Dont Piece Me - mELVInS
tabbed by tjp       
         
           
         Fast intro
|----------------------------------------------------------------------|
|----------------------------------------------------------------------|
|----------------------------------------------------------------------|
|------7-6-----5-4-5-----7-6----7-7-7-----5-4-----7-6------5-4-5-5-5-5-|
|----------------------------7--5-5-5-----------------7----------3-3-3-|
|--5-5-----3-3-------5-5--------------3-3-----5-5-------3--------------|
       
         
     Slow
|------------------------------------------------------------------|
|------------------------------------------------------------------|
|------------------------------------------------------------------|
|-----7-6------5-4-7------7-6---x7-7-7-----5-4-----7-6-------5-4---|
|------------------5----------7-x5-5-5-----------------7---------5-|
|-5-5------3-3--------5-5--------------3-3-----5-5-------3-3-------|

 
 verse                                                                          x2|
|---------------------------------------------------------------------------------|---------|
|---------------------------------------------------------------------------------|---------|
|---------------------------------------------------------------------------------|---------|
|---------------------------------------------------------------------------------|---------|
|-10-9-7-0-0-3-0-0-0-10-9-7-0-3-3-3-3-3-10-9-7-0-0-3-0-0-0-1p0-0-1p0-0-1p0-/4~~~~-|---------|
|-10-9-7-0-0-3-0-0-0-10-9-7-0-3-3-3-3-3-10-9-7-0-0-3-0-0-0-1p0-0-1p0-0-1p0-/4~~~~-|-3~~~~~~-|
         . .     . .                           . .     . .     .     .
             
|--------------------------------------------------------------------------------------------|
|--------------------------------------------------------------------------------------------|
|--------------------------------------------------------------------------------------------|
|------------------------------4-----5p4-x-------------3-----4p3-------------------4-----5p4-|
|----------------------------4-4-4-4-5p4-x-4~--------3-3-3-3-4p3-3---------------4-4-4-4-5p4-|
|-4b~~~~~~~~~-3~~~~~~~~//-\\-4---4-4-----x---5-4-5-3-3---3-3-------4-3-4p3h3-3h4-4---4-4-----|
                                 . .                     . .                         . .
           
|-------------------------------------|
|--------------------------xxxx-------|
|--------------------------xxxx-------|
|-4~----------------3-----4xxxx-5~~~~-|
|---5-4-5p4h5-4---3-3-3-3-4xxxx-3~~~~-|
|---------------5-3---3-3-------------|
                      . .
                                                                    x2|
|---------------------------------------------------------------------|
|---------------------------------------------------------------------|
|---------------------------------------------------------------------|
|-0-------1-------4-------3------0-----0----1----1----4----4----3-----|
|-0---0-0-1---0-0-4---0-0-3------0-0-0-0----1----1----4----4----3~~~--|
|-0---0-0-1---0-0-4---0-0-3------0-0-0-0----1----1----4----4----3~~~--|
                                   . .
       
    solo                      | you get the idea      |
|-----------------------------|-----------------------|------------------------------|
|-----------------------------|-----------------------|-8b9--------------------------|
|-----------------------------|-7-7-8-8-11-11-10~~--10|----/5~~----------------------|
|-----------2~~---------------|-7-7-8-8-11-11-10~~--10|---------4-----4---4-5-6b7--5-|
|-5~~555555-------------------|-----------------------|-----------4-5---5------------|
|---------------3b4~~~~-3-----|-----------------------|------------------------------|
 
   
|---------------------------------------------------|
|---------------------------------------------------|
|--6b-6b-00-5b-5b-00-6b-6b-00-5b-5b~~~~~------------|
|----------------------------------------[4]----[2]-|
|----------------------------------------[4]-or-[2]-|
|----------------------------------------[4]----[2]-|
       
FIN.
 

Offline Stareadactyl

  • former bassist
  • Posts: 20
    • View Profile
Re: Melvins Tabs
« Reply #200 on: July 01, 2007, 01:46:01 PM »
does anyone have all of Civilized Worm?
i looked through the pages, but couldn't see it, thanks.

norecess

  • Guest
Re: Melvins Tabs
« Reply #201 on: July 25, 2007, 06:51:57 AM »

g ----------------------------------------------------------------
d --------------------------------5-5-5-5-5-5-5-5-7-7-7-7-7-7-7-7-
a ----------------5-5-5-5-5-5-5-0---------------------------------
e 5-5-5-5-5-5-5-5-------------------------------------------------


Small remark, not that anyone cares. If you play the last note on the A string open, it sounds even more accurate!

Offline Pringles

  • merch vulture
  • ****
  • Posts: 287
    • View Profile
Re: Melvins Tabs
« Reply #202 on: July 28, 2007, 07:46:47 PM »
Can someone tab Arnie from the Hostile Ambiant Takeover single?
Luck is a residue of design

Offline bathroom creep

  • H.F.S.P.R.!!
  • ******
  • Posts: 2363
  • Yippee. You Can't See Me, But I Can You.
    • View Profile
Re: Melvins Tabs
« Reply #203 on: August 23, 2007, 06:51:04 AM »
Could anyone post a good version of 'Civilized Worm'?
I've been trying to tab it out myself, but it doesn't sound right...
By the way, I'm new here.
Everything was beautiful, and nothing hurt.

Centripetal core of soul sojourn the field vibrates to absolution. I climb toward the sun to breathe the universal.

Have you seen the bridge?  I ain't seen the bridge!  Where's that confounded bridge?!

Billy Fish

  • Guest
Re: Melvins Tabs
« Reply #204 on: August 24, 2007, 04:51:15 PM »
Can someone tab Arnie from the Hostile Ambiant Takeover single?


First part:


/7777//777//////7777/7

.....

and then:

Date: Thu, 6 Mar 2003 23:29:58 -0800
From: Scott Nelson
Subject: t/tubes/white_punks_on_dope.tab

Group: The Tubes

Song: White Punks on Dope

Tabbed by: Scott Nelson

This is just the basic structure of the song as best I can tell through
all the synthesizer stuff. Since I don't know how to notate timing in
tab, you'll need to listen to the song to get the timing down. Oh, yeah.
This is all my own work, so I am sure there are some mistakes. Oh, well.
I gave up attaining perfection in a previous life.

Intro

A A

----------------

----------------

----2-------2--- 2x's

----2-------2---

----0---0---0---

----------------

A A

------------------------

------------------------

--2--2------------------ 5x's

--2--2-----2--5--2--4--2

--0--0--4--------------

------------------------

 

F F F F D D D D C C C C

----1----1----1----1----5----5----5----5----3----3----3----3----

----1----1----1----1----7----7----7----7----5----5----5----5----

----2----2----2----2----7----7----7----7----5----5----5----5----

----3----3----3----3----7----7----7----7----5----5----5----5----

----3----3----3----3----5----5----5----5----3----3----3----3----

----1----1----1----1--------------------------------------------

E E E E A

-----------------------------------------------------

--------------------------------------------------2--

--------------------------------------------------2--

--2--2--------------------2--2--------------------2--

--2--2-----2--5--2--4--2--2--2-----2--5--2--4--2--0--

--0--0--4-----------------0--0--4--------------------

A A A C C C E E E G D

------------------------------------

------------------------------8-----

---2--2--2--5--5--5--9--9--9--7--7--

---2--2--2--5--5--5--9--9--9--5--7--

---0--0--0--3--3--3--7--7--7-----5--

------------------------------------

D D# F D# D

"Teenage had a race for the night time"

"Spent ..."

"Wasted..."

"Getting loose..."

Then the intro part repeats from the 5x's

with:

 

"We're White Punks on Dope

Mechanical_Bride

  • Guest
Re: Melvins Tabs
« Reply #205 on: September 03, 2007, 12:00:21 PM »
I fourth the movement for a Civilized Worm tab.

Offline mopafeena

  • watches fox red eye
  • ******
  • Posts: 5811
  • Gender: Male
    • View Profile
Re: Melvins Tabs
« Reply #206 on: September 04, 2007, 12:27:59 AM »
I fourth the movement for a Civilized Worm tab.
I thought someone already did one. Maybe i imagined it.

Offline bathroom creep

  • H.F.S.P.R.!!
  • ******
  • Posts: 2363
  • Yippee. You Can't See Me, But I Can You.
    • View Profile
Re: Melvins Tabs
« Reply #207 on: September 08, 2007, 02:11:15 PM »
Actually someone already posted a Civilized Worm tab but it was pretty hard to read.
I'm trying hard to figure it out myself but still I'm not happy with it.
Everything was beautiful, and nothing hurt.

Centripetal core of soul sojourn the field vibrates to absolution. I climb toward the sun to breathe the universal.

Have you seen the bridge?  I ain't seen the bridge!  Where's that confounded bridge?!

embah

  • Guest
Re: Melvins Tabs
« Reply #208 on: September 22, 2007, 03:41:48 PM »
Can someone tab The talking horse and You've never been right?

a bag of holes

  • Guest
Re: Melvins Tabs
« Reply #209 on: September 27, 2007, 02:02:14 PM »
can anyone tab the hawk plz?