Author Topic: Melvins Tabs  (Read 93894 times)

0 Members and 1 Guest are viewing this topic.

zach

  • Guest
Melvins Lyrics + Tab of the Day
« Reply #45 on: August 11, 2005, 05:56:29 PM »
This thread is fuckin great! Thanks man! *grabs old crappy acoustic* hehe

Offline Green Honey

  • Moderator
  • godfather of grunge
  • *******
  • Posts: 1632
  • Gender: Male
    • View Profile
    • bookface
Melvins Lyrics + Tab of the Day
« Reply #46 on: August 11, 2005, 07:05:55 PM »

Offline Green Honey

  • Moderator
  • godfather of grunge
  • *******
  • Posts: 1632
  • Gender: Male
    • View Profile
    • bookface
Melvins Tab
« Reply #47 on: August 11, 2005, 07:22:12 PM »
Found this at www.ultimate-guitar.com

Plethysmograph
Jello Biafra & The Melvins

Tabbed By: Jared Estes

Intro
Fill

Offline Green Honey

  • Moderator
  • godfather of grunge
  • *******
  • Posts: 1632
  • Gender: Male
    • View Profile
    • bookface
Melvins Tab
« Reply #48 on: August 17, 2005, 07:11:54 AM »
ISABELLA

Offline Green Honey

  • Moderator
  • godfather of grunge
  • *******
  • Posts: 1632
  • Gender: Male
    • View Profile
    • bookface
Melvins Tab
« Reply #49 on: August 27, 2005, 08:26:24 AM »
Oven (Drums)

Code: [Select]
Tabbed by Ryan (ragezer@aol.com)


Play everything once unless noted otherwise.

C |-X----------------X--X--|
Ht|--------------------o---|
Ft|---o-o-o-o-o-o-o-o--o---|
S |-o-------o-------o------|
B |-o-o-o-o-o-o-o-o--o--o--|

C |-X----------------X--|
Ht|---------------------|
Ft|---o-o-o-o-o-o-o-o---|
S |-o-------o-------o---|
B |-o-o-o-o-o-o-o-o--o--|

C |-X----------------X--X--|
Ht|--------------------o---|
Ft|---o-o-o-o-o-o-o-o--o---|
S |-o-------o-------o------|
B |-o-o-o-o-o-o-o-o--o--o--|

C |-X-------------X-----------X--|
Ht|---------o---o----------ooo---|
Ft|---------o---o----------ooo---|(2x)
hh|---x---x---x------x---x-------|
S |------------------------------|
B |-o-------------o--------oooo--|

C |-X-------------X------------------|
Ht|---------o---o----------oooo-oooo-|
Ft|---------o---o----------oooo-oooo-|
hh|---x---x---x------x---x-----------|
S |----------------------------------|
B |-o-------------o--------oooo-oooo-|


hh|-X---x---x-X---X---X--X---X------------------|
S |-o--------------------o---o------------------|(3x)
B |-oo--------o---o---o------oo------oo------oo-|


C |---X----------------------X---------|
Ft|-o----------------------o-----------|
hh|-----x-x-x-x-x-X----X-------x-X-----|
S |-o-------o-----o----o---o-----o-----|
B |---o-----------oo---------o---oo----|

C |---X---------------X-------X-------X-------|
Ft|-o-----------------------------------------|
hh|-----x-x-x-x-x-x-x-----x-------x-------x---|
S |-o-------o-----o---o-------o-------o-------|
B |---o---------------o-o-o-o-o-o-o-o-o-o-o-o-|

C |--X---------------------------------|
Ht|--------------------------oooo-oooo-|
Ft|--------------------------oooo-oooo-|
hh|----x-x-x-x-x-x-x-X-X-x-x-----------|
S |------o-------o-------o-o-----------|
B |--o-----o---oo-oooo-o-----oooo-oooo-|
Pause between this and next riff

C |--X----------------------------|
Ht|--------------------------oooo-|
Ft|--------------------------oooo-|
hh|----x-x-x-x-x-x-x-X-X-x-x------|
S |------o-------o-------o-o------|
B |--o-----o---oo-oooo-o-----oooo-|
No Pause

C |--X---------------------------------------|
hh|----x-x-x-x-x-x-x-X-X-x-x-x---x---x---x---|
S |------o-------o-------o-o-o-------o-------|
B |--o-----o---oo-oooo-o-----o-o-o-o-o-o-o-o-|

C |-X-------X-------X-------X-------X-|
hh|-----x-------x-------x-------x-----|
S |-o-------o-------o-------o-------o-|
B |-o-o-o-o-o-o-o-o-o-o-o-o-o-o-o-o-o-|

Offline Green Honey

  • Moderator
  • godfather of grunge
  • *******
  • Posts: 1632
  • Gender: Male
    • View Profile
    • bookface
Melvins Tab
« Reply #50 on: August 29, 2005, 07:19:18 PM »
Found this more accurate version of

Vile
Tabbed by an17nin17

Tuning - low to high - D, A, D, G, B, E

Intro -

|---|
|---|
|---|
|-0-| This is some very quiet feedback
|-0-|
|-0-|

|---------------------------------------------------------------|
|---------------------------------------------------------------|
|---------------------------------------------------------------|
|-3^~~-0~~-0-0-3^~~-0-3^~~-0~~-6~~-5~~-0-0-3^~~-0-0-6~~---------| x2
|-3^~~-0~~-0-0-3^~~-0-3^~~-0~~-6~~-5~~-0-0-3^~~-0-0-6~~-6~~-5~~-|
|-3^~~-0~~-0-0-3^~~-0-3^~~-0~~-6~~-5~~-0-0-3^~~-0-0-6~~---------|
 

Offline Green Honey

  • Moderator
  • godfather of grunge
  • *******
  • Posts: 1632
  • Gender: Male
    • View Profile
    • bookface
Melvins Tab
« Reply #51 on: August 29, 2005, 07:20:59 PM »
Jew Boy Flower Head
(bass)

^^full bend
^ bend
\ slide
~ hold

swing rhythm


Riff A
G---------------------------------|-----------------
D---------------------------------|-----------------
A---------------------------------|-5-----------7---
E-0-----3-----0-----5-----7---6---|-------7---5-----


"....it's later than you think....."

Riff B
G---------|-------------|---------|-----------------
D---------|-------------|---------|-----------------
A-3(13x)--|-------0-3-0-|-5(12x)--|-----------------
E---------|-3\5---------|-------0-|-3~~---2-----6---



Repeat all of the above once more.
End with intro.

Offline Green Honey

  • Moderator
  • godfather of grunge
  • *******
  • Posts: 1632
  • Gender: Male
    • View Profile
    • bookface
Melvins Tab
« Reply #52 on: August 29, 2005, 07:42:22 PM »
Way of the World
(bass)


intro
g -----------------
d -5-5-5-5-5-5-5-5-
a -5-5-5-5-5-5-5-5- etc
e -----------------

riff
g ----------------------------------------------------------------
d --------------------------------5-5-5-5-5-5-5-5-7-7-7-7-7-7-7-7-
a ----------------5-5-5-5-5-5-5-5---------------------------------
e 5-5-5-5-5-5-5-5-------------------------------------------------

g -----------------
d -----------------
a -8-8-8-8-8-8-7-5-
e -----------------

Offline Green Honey

  • Moderator
  • godfather of grunge
  • *******
  • Posts: 1632
  • Gender: Male
    • View Profile
    • bookface
Melvins Tab
« Reply #53 on: August 30, 2005, 06:05:22 AM »
Missing
(bass)

g|----------------------------------------------------
d|----------------------------------------------------
a|-12-------------------------------------------------
e|--------------------------------------------5---4---
 

Offline Green Honey

  • Moderator
  • godfather of grunge
  • *******
  • Posts: 1632
  • Gender: Male
    • View Profile
    • bookface
Melvins Tab
« Reply #54 on: September 01, 2005, 12:30:35 PM »
Bricklebrit

Gb|--------------------------------------|  (x3)
Db|--------------------------------------|
Ab|-------------4-3----------------------|
Eb|-44444444444------33333333333-3030303-|


Gb|--------------------------------------|
Db|--------------------------------------|  (x1)
Ab|-3-4-3-2-3-4-3-2----------------------|
Eb|------------------55555---------------|


in between here there is some kind of noise...

repeat above bars.

that noise again.

then play them again.

finally, play this:
Gb|--------------------------------------|
Db|--------------------------------------|  (x1)
Ab|--------------------------------------|
Eb|-77777777777777777777777777777--------|

Offline Green Honey

  • Moderator
  • godfather of grunge
  • *******
  • Posts: 1632
  • Gender: Male
    • View Profile
    • bookface
Melvins Tab
« Reply #55 on: September 12, 2005, 06:17:22 AM »
Now for a corrected version of

Heaviness Of The Load

Drop D tuning
 

Offline Green Honey

  • Moderator
  • godfather of grunge
  • *******
  • Posts: 1632
  • Gender: Male
    • View Profile
    • bookface
Melvins Tab
« Reply #56 on: October 04, 2005, 03:04:41 PM »
Pearl Bomb
(bass)

part 1, main riff:
E|---------------------------------|---------------------------------
B|---------------------------------|---------------------------------
G|---------------------------------|---------------------------------
A|---------------------------------|---------------------------------
E|-0-0-0-0-0-7-0-6~----------------|-0-2-0-5-0-0-0-0-0-2-0-3-0-0-0-0-

E|---------------------------------|
B|---------------------------------|
G|---------------------------------|
A|---------------------------------|
E|-0-2-3-2-3-2-3-0-2-1-2-1-2-1-2-0-|


part 2
E|---------------------------------|-------------------------------|
B|---------------------------------|-------------------------------|
G|---------------------------------|-------------------------------|
A|---------------------------------|-------7---7-----------7---7---|
E|-0-0-0-1-0-1-0-0-4-3-3-0\7-7-6---|-0-6-0---7---6-6-0-6-0---7---6-|


part 3 - play 5 times
E|-------------------------------------|
B|-------------------------------------|
G|-------------------------------------|
A|-------------------------------7-6---|
E|-0-0-0-0-0-0-0-0-0-0-0-0-0-0-0-----0-|


Outro
E|---------------------------------------|
B|---------------------------------------|
G|-9-8---9-8---9-8---9-8---9-8---8---8-8-|
A|-7-6---7-6---7-6---7-6---7-6---6---6-6-|
E|---------------------------------------|

Offline Green Honey

  • Moderator
  • godfather of grunge
  • *******
  • Posts: 1632
  • Gender: Male
    • View Profile
    • bookface
Melvins Tab
« Reply #57 on: October 04, 2005, 03:05:43 PM »
Keep Away From Me
album:

Offline Green Honey

  • Moderator
  • godfather of grunge
  • *******
  • Posts: 1632
  • Gender: Male
    • View Profile
    • bookface
Melvins Tab
« Reply #58 on: October 11, 2005, 03:31:29 AM »
Artist: The Angels
Title: Can't Shake It
Album: No Exit
Transcribed by: Peter Schmidt
Email: rubberlips1@yahoo.com

------------------------------------------------------------------------------
------------------------------------------------------------------------------
------------------------------------------------------------------------------
--------------------------7v--------------------------7v----------------------
-9--9-----9----9--9---7h9-----9--9-----9----9--9--7h9-------------------------
-7--7-----7----7--7-----------7--7-----7----7--7------------------------------

Offline Green Honey

  • Moderator
  • godfather of grunge
  • *******
  • Posts: 1632
  • Gender: Male
    • View Profile
    • bookface
Melvins Tab
« Reply #59 on: October 11, 2005, 04:06:13 AM »
And now
Hostile Ambient Takeover
in all its glory...

(minus Little Judas Chongo...)

Black Stooges

Intro (4X):