Antitoxidote

From MelvinsWiki
Jump to: navigation, search

"Antitoxidote" (Osborne) – 2:16

Originally from Eggnog, 1991.

Lyrics

May be since I'm mad inside my arm

Last truth gonna let it fake away

Try hard and I heard her stay

When she's like a piece of candle lone

Last slip gonna let it toss away


Pigs don't let it

Pigs don't let it

Pigs don't let it

Pigs don't let it


Like a hole it's a bone let's a body goad

Pigs don't let it

Like siz, bust it while it roll

Pigs don't let it

No no no no no no


When she's like a piece of candle lone

Last you gonna let it toss away

Try har and I heard her stay

May be since I made it inside my arm

Last true gonna let it trust away

Guitar TAB

This song requires a massive amount of feedback so crank those amps!!


^ = Hammer On   * = palm muted note   (  ) = harmonics on the specified fret.

TUNING: EADGBE

To begin with build up feedback and wait for Dale to count you in!

Intro Riff:

---------------------------!         
----------8----------------!  Let this part ring and after 8 beats, do it again.
----------7----------------!
--0------------------------!


Here's the 2nd Intro Riff:

---------------------------------------------!
------7^8-----7^8-----7^8-----7^8--8--8--8---!  Play this 4 times
------7^8-----7^8-----7^8-----7^8--8--8--8---!
---0-------0-------0------0------------------!


Verse Riff:

----------------------------------!
--7-7-7-7-6-6-6-6-6-6-6-8-8-8-8-8-!     Play this 6 times
--5-5-5-5-5-5-5-5-5-5-5-6-6-6-6-6-!
----------------------------------!
  *       *       *   * * * * * *

Pre-solo Riff:

--------------------!
-------------8------!Play this 3 times
-------------8------!
--0-----------------!


Solo Section (This is fairly long):

---------------------------------------------------------------------------------
----------------0----------------------------------------------------------------
----------------0----------------------------------------------------------------
---0---0-3-0-----------------------3-3-3--3---0-0--(5-5-5-5-5-5-5-5-5-5-5-5-5-5-5


-----------------------------------------------------------------------------
----------------------------12-14-14-12-14-14-12-14-14-12-14-14-14-14-----12-
----------------------------12-14-14-12-14-14-12-14-14-12-14-14-14-14-----12-
-5-5-5-5-5-5)0-0-0-0---------------------------------------------------0-----
------------------------------------------!
14-14-12-14-14-12-14-14-12-14-14-14-14----!     Bass continues playing 
14-14-12-14-14-12-14-14-12-14-14-14-14----!     while Buzz sings "pigs 
----------------------------------------0-!      don't let it".


After the solo section and "pigs" part, play the 2nd intro over again and the verse riff over again.

After the verse, play the pre-solo riff and end with the 2nd intro riff.

THEN YOU'RE DONE!!!!!!!!!!!!!!!!


If you have any problems with this transcription, feel free to give me a shout at aubin@maple.net.