Bitten Into Sympathy

From MelvinsWiki
Jump to: navigation, search

"Bitten Into Sympathy" (Osborne) – 1:45

Originally from Gluey Porch Treatments (1987, vinyl and CD, 1989).

Also appears on the Ipecac re-release of Gluey Porch Treatments.

Lyrics

I have the understanding and the tribal sense of true.

Bitten into sympathy and made to flex with you.

You control my weather and control behind my eyes.

Magnitude be simply simply simply simp.

The lies!

The lies!


Guitar TAB

Tuning: Standard (E A D G B E)

Intro - Do this 4x I think

E|---------------------------------------------------------||
B|---------------------------------------------------------||
G|---------------------------------------------------------||
D|-2---4--44-----------------------------------------------||
A|-2---4--44---4-----------5-------------------------------||
E|-0---2--22-----3------2-----4-Let ring-------------------||
         \PM/  

Main Riff - Do this riff a bunch of times

E|---------------------------------------------------------||
B|---------------------------------------------------------||
G|---------------------------------------------------------||
D|-2--22--2--22--22--4---2--44-----------------------------||
A|-2--22--2--22--22--4---2--44--4-----------5--------------||
E|-0--00--0--00--00--2~--0--22----3------2----4-Let ring---||
     \PM/   \PM/           \PM/   


That's about it. There's one part that I can't figure out. It's the ending but it sounds like it's just another version of the main riff. Just with slides and stuff.