Boris

From MelvinsWiki
Jump to: navigation, search

"Boris" (Osborne) – 8:34

Originally from Bullhead, 1991.

Lyrics

I'd like to take I like to feel wanted

Taken up and take them tall

I like to make a lot of generate the one-eyed mouse

Build 'em up and let 'em fall

Just lay 'em on and leave the linen tight

Taken up and take them tall

Generate, lay them flat like monkey man

Leave 'em built, right, stand 'em tie them down

It's like sin.


Boris likes a lot of little things to kick

Mix every single one that he could ever need

Boris feed

But friends don't friends don't lie

Let's make/take, let's feel wanted

Taken up and take 'em tall

My shake, minds monkey-matter

Boris knows and Boris likes it all

It's like sin.


It's a killer she's a killer maker

It reaches in and takes from the back of your mind

I'm not awake still alive

20 bucks has the back and see the lines

I got a small, got what they call the lack

A lack o' halfway cooked but its all my own

I say I can't but I really mean I won't

In their arm or maybe up a nose

I see it all

See Boris has way of seeing through my eyes

He touches, in a fashion a master of mime

Manipulating me, my arms and legs and spine

He's got you pawed

I'm sinkin shoulder wake like a spin on through

Let 'em hum.

Guitar Tab

. = palm mute
~ = vibrato 
b = bend
Drop-A Tuning: A-A-D-G-B-E
63 BPM

Drums come in after 4 bars, vocals 14 bars.


First play this:

e|-----------------------------------------------------------------
b|-----------------------------------------------------------------
g|-----------------------------------------------------------------
d|-----------------------------------------------------------------
a|-1---3b------0---0---0---0---0---0---0---0---1~~---------0-------
A|-1---3b------0---0---0---0---0---0---0---0---1~~---------0-------
                   .   .       .   .   .   .                           

Then play this 9 times:

e|-----------------------------------------------------------------
b|-----------------------------------------------------------------
g|-----------------------------------------------------------------
d|-----------------------------------------------------------------
a|-0---0---0---0---0---0---0---0---0---0---0---3~~---------0-------
A|-0---0---0---0---0---0---0---0---0---0---0---3~~---------0-------
       .   .       .   .   .       .   .   .                            
e|-----------------------------------------------------------------|
b|-----------------------------------------------------------------|
g|-----------------------------------------------------------------|
d|-----------------------------------------------------------------|       
a|-0---0---0---0---0---0---0---0---0---0---0---1~~---------0-------|
A|-0---0---0---0---0---0---0---0---0---0---0---1~~---------0-------|
       .   .       .   .   .       .   .   .                            


Riff 2: (2m:35s "It's like sin")

e|-----------------------------------------------------------------------------
b|-----------------------------------------------------------------------------
g|-----------------------------------------------------------------------------
d|-----------------------------------------------------------------------------
a|-1-----------0-----------3-------1-------0---3---0---1---0---1---0---1---0---
A|-1-----------0-----------3-------1-------0---3---0---1---0---1---0---1---0---

e|---------------------------------------------------------
b|---------------------------------------------------------
g|---------------------------------------------------------
d|---------------------------------------------------------
a|-0---0---11--0---0---11--0---0---11--0---0---11--0---0---
A|-0---0---11--0---0---11--0---0---11--0---0---11--0---0---
   .   .       .   .       .   .       .   .       .   .  

e|-----------------------------------------------------------------------------
b|-----------------------------------------------------------------------------
g|-----------------------------------------------------------------------------
d|-----------------------------------------------------------------------------
a|-1-----------0-----------3-------1-------0---3---0---1---0---1---0---1---0---
A|-1-----------0-----------3-------1-------0---3---0---1---0---1---0---1---0---
e|---------------------------------------------------------|
b|---------------------------------------------------------|
g|---------------------------------------------------------|
d|---------------------------------------------------------|
a|-0---0---0---0---0---1/12~~-----------------1---3--------| 
A|-0---0---0---0---0---1/12~~--------------12\1---3--------|
                                        

Back to Riff 1, then Riff 2.


Then a variation on Riff 1 where Buzz does lots of bending on the 5th string around the 10 and 12th frets for 5 bars.

Then Riff 2, after which Buzz plays Riff 1 by himself for a while.

Bass TAB

Drop D Tuning

Intro (Play once only):
G|----------------------------
D|----------------------------
A|----------------------------
D|8-7-7-7-8-7-7-7-9b------8---

Then
G|----------------------------------
D|----------------------------------
A|----------------------------------
D|8-7-7-8-7-7-7-8-7-7-7-9b------8---

Repeat until
"It's like sin"
 
G|-------
D|-------
A|-------
D|8-7-7-8


Bridge:
G|-----------------------------
D|-----------------------------
A|-----------------------------
D|7-9-8-7-9-8-9-8-9-8-9-8-8-9-8

G|--------------------------------
D|--------------------------------
A|--------------------------------
D|7-7-8-7-7-8-7-7-8-7-7-8-7-7-9---

G|-----------------------
D|-----------------------
A|-----------------------
D|7-9-8-7-9-8-9-8-9-8-9-8

G|--------------------------------
D|--------------------------------
A|--------------------------------
D|7-7-8-7-7-9(hold)------------7-8

Back to main riff.


Drum TAB

Tabbed by: Midian314159@aol.com


C = Cymbal Choke  
f = flam  
O (on high hat line)= open hat
d = drag 

Note: some of the drags in this song may have three grace notes: 
they sound messy because they are so low in pitch. As long as 
the bass drum is played also, it should give a full enough sound. 
Note: When there are two flams on the same note, that means 
that the grace note and main note are on different drums. 
It generally doesn't matter which is which, because they 
sound very similar.
F2 = Floor tom 2
Hf = high hat with foot 
H2 = Rhythm Crasher
T = Thirty second note (the counting above these are spread 
out to give them space; this is not a mistake)
Note: Cymbal crashes may be on different cymbals: I did not 
specify which ones both because I probably could not and I 
think it is unnecessary: everyone's cymbals have different 
sounds anyway. It doesn't matter as long as it crashes.

Wait 7 measures before starting.

   1 + 2 + 3 + 4 + 1 + 2 + 3 + 4 + 1 + 2 + 3 + 4 +
CR ------C-----------------------------------------
SD ----------------f-------------f-f---fo—---fo---- 
FT ----------f-------------------------------------
F2 --------------------------f---------------------
BD ------o-----o-------o-------o---------o-----o---

   1 + 2 + 3 + 4 + 1 + 2 + 3 +   4   +   1 + 2 + 3 + 4 +
H2 --------------------------------------------------x---
SD ----------f-----f---f-----TT--------------f---------o-
T2 ----------------------------TT------------------------ 
T3 ------------------------------TTTT--------------------
FT f---------------------------------TTT-----------------
F2 –-f-----fo----fo--------------------------------f-----
BD -------------------------------------------o----------

   1 + 2 + 3 + 4 + 1 + 2 + 3 + 4 + 1 + 2 + 3 + 4 +
CR --------------------------------------X---------
HH --------------------------------------------O---
SD f---------f---------------f-----------------o---
F2 ----f---------f-----f---------f-----------------
HF ----------------------------------------------x-
BD ----------------------o---------------o---o---o-

   1 + 2 + 3 + 4 + 1 + 2 + 3 + 4 + 1 + 2 + 3 + 4 +
CR ----------------X-----X-------------------------
HH –-O---x---x---x-------------O---x---x-------x---
SD f-------o-------o-----o-----o-------o-------o---
HF ----x-------------------------x-----------------
BD ----o-o---o-o-o-----------o---o-o-o---o-o-o---o-

   1 + 2 + 3 + 4 + 1 + 2 + 3 + 4 + 1 + 2 + 3 + 4 +
CR X-----X-------------------------X-----X---------
HH ------------x---x---x---x---O-------------O---O-
SD o-----o-----o-----o-------o-o---o-----o---o-----
HF ------------------------------x-------------x---
BD ----------o---o-o---o-o-o-----o-------------o-o-

   1 + 2 + 3 + 4 + 1 + 2 + 3 + 4 + 1 + 2 + 3 + 4 +
CR ----------------X-----X-------------------------
HH –-O---O---x---x-----------O-----x---x---x---x---
SD f-o-----f-------o-----o---o-----o-----o-------o-
F2 --------------------d---------------------------
HF x---x---x-------------------x-------------------
BD –-o-o-o---o-o-o-----o-------o-o---o-o---o-o-o---

   1 + 2 + 3 + 4 + 1 + 2 + 3 + 4 + 1 + 2 + 3 + 4 +
CR X-----X-------------------------X-----X---------
HH ----------O-----x---x---x---x-------------O---x-
SD o-----o---o-----o-------o-------o-----o---o-f---
F2 ------------------------------------d-----------
HF ------------x-------------------------------x---
BD ------------o-o---o-o-o---o-o-o-----o-----------

   1 + 2 + 3 + 4 + 1 + 2 + 3 + 4 + 1 + 2 + 3 + 4 + 
CR ----------------X-----X-------------------------
HH –-O---x---x---x-----------O---x---x---x---x---x-
SD –-o-----o-------o-----o---o-----o-------o-------
HF ----x-----------------------x-------------------
BD o---o-o---o-o-o-------------o-o---o-o-o---o-o-o-

   1 + 2 + 3 + 4 + 1 + 2 + 3 + 4 + 1 + 2 + 3 + 4 +
CR X-----X-------------------------X-----X---------
HH ----------O-----O-----O---O---------------O---O-
SD o-----o---o-----o---------o-----o-----o-----f-o-
F2 ----d-------------------------------------------
HF ------------x-----x-----x---x---------------x---
BD ----o-------o-o---o-o-o-o---o-o-----------o-----



   1 + 2 + 3 + 4 + 1 + 2 + 3 + 4 + 1 + 2 + 3 + 4 +
CR ----------------X-----X-------------------------
HH –-x---x-----x-------------O---O---O---x---x---x-
SD ----o-------o---o-----o---o-f-------f---------o-
F2 --------------------d---------------------------
HF x---------------------------x---x---x-----------
BD o-o---o-o-o---o-----o-----------o-o---o-o-o-o---

   1 + 2 + 3 + 4 + 1 + 2 + 3 + 4 + 1 + 2 + 3 + 4 +
CR X-----X-------------------------X-----X---------
HH ----------O---x---x---x---x---x-----------O-----
SD o-----o---o-----o-------o-------o-----o---o-f---
F2 ------------------------------------d-----------
HF ------------x-------------------------------x---
BD ------------o-o---o-o-o---o-o-o-----o---------o-

   1 + 2 + 3 + 4 + 1 + 2 + 3 + 4 + 1 + 2 + 3 + 4 +
CR X-----X---X---X---------------------------------
HH --------------------O-------O-----------O-----O-
SD o-----o---o---o-----o-------o---f-------o-----o-
FT ------------------------f-------f---------------
HF ----------------------x-------x-----------x-----
BD ------------------o---o---o---o---o-o-o---o-o---
                           

                             
   1 + 2 + 3 + 4 + 1 + 2 + 3 + 4 + 1 + 2 + 3 + 4 +
CR ----------------------X---X---X-----------------
CT ----------------X-------------------------------
HH ----O-----O-------------------------O-----------
SD ----o-----o-----o-----o---o---o-----o-----------
FT ----------------------------------------f-------
F2 --------------------------------------------f---
HF x-----x-----x-------------------------x---------
BD o-o---o-o---o-o-------------------o---o---o---o-

   1 + 2 + 3 + 4 + 1 + 2 + 3 + 4 + 1 + 2 + 3 + 4 +
CR --------------C-----------------X---------------
HH O---x---x---------------------------O---x---x---
T1 -–o---------------------------------------------  
SD o-o-----o-----o-----------------o-------o-------
HF –-x-----------------------------------x---------
BD ----o-o---o-o---------------------o-o-o---o-o-o-

   1 + 2 + 3 + 4 + 1 + 2 + 3 + 4 + 1 + 2 + 3 + 4 +
CR X-----X-------------------------X-----X---------
HH ------------O---O---O---O---O---------------x---
SD o-----o-----o-----f-------o-o---o-----o-----o---
HF --------------x---x---x---x---x-----------------
BD ----------o---o-o---o-o-o-----o-----------o---o-

   1 + 2 + 3 + 4 + 1 + 2 + 3 + 4 + 1 + 2 + 3 + 4 +
CR ----------------X-----X-------------------------
HH O---x---O---x-------------O-----O-O---x-----x---
SD –-o-------o-----o-----o---o-----o-o---------o---
HF –-x-------x-----------------x----x—-x-----------
BD o---o-o-o---o-o-------------o-o-----o-o-o-o---o-

   1 + 2 + 3 + 4 + 1 + 2 + 3 + 4 + 1 + 2 + 3 + 4 +
CR X-----X-------------------------X-----X---------
HH ----------O---O---x---x---x---x-------------x---
SD o-----o---o-f-------o-------o---o-----o-----o---
F2 ----d-------------------------------------------
HF ------------x---x-------------------------------
BD ----o-----------o-o---o-o-o---o-----------o---o-



   1 + 2 + 3 + 4 + 1 + 2 + 3 + 4 + 1 + 2 + 3 + 4 +
CR ----------------X-----X-------------------------
HH x-----x---x---------------O---x---x---x---x---x-
SD ------o---------o-----o---o-----o-------o-------
F2 --------------------d---------------------------
HF ----------------------------x-------------------
BD o-o-o---o-o-o-o-----o-------o-o---o-o-o---o-o-o-

   1 + 2 + 3 + 4 + 1 + 2 + 3 + 4 + 1 + 2 + 3 + 4 +
CR X-----X-------------------------X-----X---------
HH ------------O---O---x---x---x-------------O-----
SD o-----o-----o-f-o-----o---------o-----o---o-----
F2 ------------------------------------d-----------
HF --------------x---x-------------------------x---
BD ----------o-------o-o---o-o-o-o-----o-------o-o-

   1 + 2 + 3 + 4 + 1 + 2 + 3 + 4 + 1 + 2 + 3 + 4 +
CR ----------------X-----X-------------------------
HH O-----O---O-----------------O---x---x---x-------
SD o-----o---o-----o-----o---f-----o-------o-------
HF –-x-----x---x-----------------x-----------------
BD –-o-o---o---o-o---------------o---o-o-o---o-o-o-

   1 + 2 + 3 + 4 + 1 + 2 + 3 + 4 + 1 + 2 + 3 + 4 +
CR X-----X-------------------------X-----X---------
HH ----------O-----x---x---x---x-------------O---x-
SD o-----o---o-----o-------o-------o-----o---o-f---
F2 ----d-------------------------------------------
HF ------------x---------------------------------x-
BD ----o-------o-o---o-o-o---o-o-o-----------------

   1 + 2 + 3 + 4 + 1 + 2 + 3 + 4 + 1 + 2 + 3 + 4 +
CR ----------------X-----X---------X-----X---X---X-
HH –-x---x---x---x-----------O--------------------
SD ----o-----------o-----o---o-f---o-----o---o---o-
F2 --------------------d---------------------------
HF ----------------------------x-------------------
BD o-----o-o-o-o-o-----o---------o-----------------

           
                  
   1 + 2 + 3 + 4 + 1 + 2 + 3 + 4 + 1 + 2 + 3 + 4 + 
HH ----O-------O-----------O-----O-----O-----O-----
SD ----o-------o---f-------o-----o-----o-----o-----
FT --------f-------f-------------------------------
HF ------x-------x-----------x-----x-----x-----x---
BD –-o---o---o---o---o-o-o---o-o---o-o---o-o---o-o-

   1 + 2 + 3 + 4 + 1 + 2 + 3 + 4 + 1 + 2 + 3 + 4 +
CR ------X---X---X-------------------------------C-
CT X-----------------------------------------------
HH --------------------O-------O-------x---O-------
SD o-----o---o---o-----o-------o---f---------f-----
FT ------------------------f-----------------------
HF ----------------------x-------x-f---------x-----
BD ------------------o---o---o---o---o-o-o-o---o-o-

   1 + 2 + 3 + 4 + 1 + 2 + 3 + 4 + 1 + 2 + 3 + 4 +
CR --------------------------------X---------------
HH ----------------------------------O-------O-----
SD --------------------------------o-o---f---o-f---
FT --------------------------------------f---------
HF ------------------------------------x-------x---
BD ------------------------------------o---o-----o-

   1 + 2 + 3 + 4 + 1 + 2 + 3 + 4 + 1 + 2 + 3 + 4 +
CR X-----X---------X---------------X-----X---------
CT ------------------------------------------X-----
HH ----------O-------O---O---O-------------------O-
SD o-----o---o-f---o-o---o---o-----o-----o---o---o-
HF ------------x---------------x-------------------
BD –-o-----------o-----o---o---o-o-------------o---

   1 + 2 + 3 + 4 + 1 + 2 + 3 + 4 + 1 + 2 + 3 + 4 +
CR ----------------X-----X-------------------------
CT –-X---X-----------------------------------------
HH ----------O---------------O---x---x---x---O-----
SD –-o---o---o-----o-----o---o-------o-----------o-
S2 ----o-------------------------------------------
HF ------------x---------------x---------------x---
BD o-------o---o-o-------------o-o-o---o-o-o-o-o---



   1 + 2 + 3 + 4 + 1 + 2 + 3 + 4 + 1 + 2 + 3 + 4 +
CR X-----X---------X-----X---X---X-----------------
HH ------------------------------------O-------O---
SD o-----o---f-f---o-----o---o---o-----o-------o---
FT ----d-----------------------------------f-------
HF --------------------------------------x-------x-
BD ----o---------o---o---------------o---o---o---o-



   1 + 2 + 3 + 4 + 1 + 2 + 3 + 4 + 1 + 2 + 3 + 4 +
CR --------------------------------------X---X---X-
CT --------------------------------X---------------
HH --------O-----O-----O-----O---------------------
SD f-------o-----o-----o-----o-----o-----o---o---o-
FT f-----------------------------------------------
HF ----------x-----x-----x-----x-------------------
BD –-o-o-o---o-o---o-o---o-o---o-o-----------------

   1 + 2 + 3 + 4 + 1 + 2 + 3 + 4 + 
CR ------------------------------C-
HH ----O-------O-------x---O---x---
SD ----o-------o---f-------o-------
FT --------f-------f---------------
HF ------x-------x-----------x-----
BD –-o---o---o---o---o-o-o---o-o-o-

HERE THE DRUM PART ENDS ALTHOUGH THE SONG CONTINUES FOR ABOUT TWO AND A HALF MINUTES.