Dies Iraea

From MelvinsWiki
Jump to: navigation, search

"Dies Iraea" - 4:33

Originally released on Nude With Boots, 2008.

Guitar Tab

Standard Tuning


1st part:
E---------------------------------|----------------------------------|---------------------------
B---------------------------------|----------------------------------|---------------------------
G---------------------------------|----------------------------------|---------------2-2R--------
D---------------------------------|----------------------------------|---------------2-2R--------
A-3---2---3-------2---------------|-----3---3---5---3---2------------|-2---3---2-----0-0R--------
E-------------5-------3---5---5---|-5-----------------------5---3b---|---------------------------
2nd part [Palm-Muted]:
E---------------------------------|----------------------------------|
B---------------------------------|----------------------------------|
G---------------------------------|----------------------------------|
G---------------------------------|-----------------2R---------------|
D-2---5---5---4-------2---2-------|---------2---2---2R---------------|
A-----------------5-----------5---|-3---5-----------0R---------------|
E---------------------------------|----------------------------------|

Then play a powerchord version of the 1st part, minus the ninth note of the riff.