Echo Head/Don't Piece Me

From MelvinsWiki
Jump to: navigation, search

"Echo Head/Don't Piece Me" (Osborne) – 2:51

Originally from Gluey Porch Treatments (1987, vinyl and CD, 1989).

Also appears on the Ipecac re-release of Gluey Porch Treatments.

Lyrics

Smokin' like a dreamer

Don't piece me in

Tear apart your headache

Take it in your rib tee

Check the placcid league fight

It's your symbol

Choose what's in my skull

Never run, never

Oh God it looks so beautiful!

Never

Never is an ugly word.


Guitar Tab

Echo Head

tabbed by tjp

                          x2|
e|--------------------------|---|
B|--------------------------|---|
G|--------------------------|---|
D|--------------------------|---|
A|--0h3-0--0-0-1p0--0-0-3~--|-0-|
D|--0h3-0--0-0-1p0--0-0-3~--|-0-|
            
                                            x2|
e|--------------------------------------------| 
B|---------------1x1-0x-1-2-2-1-0-1-2-0-2-3/--|
G|---------------1x1-0x-1-2-2-1-0-1-2-0-2-3/--|
D|--------------------------------------------|
A|-6x6-5-x5-----------------------------------|
D|-6x6-5-x5-6-7~------------------------------|          
            
                          x2|
e|--------------------------|-------|-------------------------|
B|--------------------------|-------|-------------------------|
G|--------------------------|---x-x-|-------------------------|
D|--------------------------|---x-x-|-------------------------|
A|--0h3-0--0-0-1p0--0-0-3~--|-0-x-x-|-0h3-0--0-0-1p0--0-0-3-0-|
D|--0h3-0--0-0-1p0--0-0-3~--|-0-----|-0h3-0--0-0-1p0--0-0-3-0-|
              
                    
e|-----------------------------------------------------------------------------------|
B|----------------1x1-0x-1-2-2-1-0-1-2-0-2-3-<Let Ring->>>>>>>>>>>>>>>>>>>>>>>>>>>>>-|
G|----------------1x1-0x-1-2-2-1-0-1-2-0-2-3-<--------->>>>>>>>>>>>>>>>>>>>>>>>>>>>>-|
D|-----------------------------------------------------------------------------------|
A|-6x6-5-x5--------------------------------------------------------------------------|
D|-6x6-5-x5-6-7~---------------------------------------------------------------------|
        


Dont Piece Me

tabbed by tjp

     Fast intro
|----------------------------------------------------------------------|
|----------------------------------------------------------------------|
|----------------------------------------------------------------------|
|------7-6-----5-4-5-----7-6----7-7-7-----5-4-----7-6------5-4-5-5-5-5-|
|----------------------------7--5-5-5-----------------7----------3-3-3-|
|--5-5-----3-3-------5-5--------------3-3-----5-5-------3--------------|
       
         
    Slow
|------------------------------------------------------------------|
|------------------------------------------------------------------|
|------------------------------------------------------------------|
|-----7-6------5-4-7------7-6---x7-7-7-----5-4-----7-6-------5-4---|
|------------------5----------7-x5-5-5-----------------7---------5-|
|-5-5------3-3--------5-5--------------3-3-----5-5-------3-3-------|
   verse                                                                        x2|            
|---------------------------------------------------------------------------------|---------|
|---------------------------------------------------------------------------------|---------|
|---------------------------------------------------------------------------------|---------|
|---------------------------------------------------------------------------------|---------|
|-10-9-7-0-0-3-0-0-0-10-9-7-0-3-3-3-3-3-10-9-7-0-0-3-0-0-0-1p0-0-1p0-0-1p0-/4~----|---------|
|-10-9-7-0-0-3-0-0-0-10-9-7-0-3-3-3-3-3-10-9-7-0-0-3-0-0-0-1p0-0-1p0-0-1p0-/4~----|-3~------|
         . .     . .                           . .     . .     .     .
            
|--------------------------------------------------------------------------------------------|
|--------------------------------------------------------------------------------------------|
|--------------------------------------------------------------------------------------------|
|------------------------------4-----5p4-x-------------3-----4p3-------------------4-----5p4-|
|----------------------------4-4-4-4-5p4-x-4~--------3-3-3-3-4p3-3---------------4-4-4-4-5p4-|
|-4b~---------3~-------//-\\-4---4-4-----x---5-4-5-3-3---3-3-------4-3-4p3h3-3h4-4---4-4-----|
                                 . .                     . .                         . .
          
|-------------------------------------|
|--------------------------xxxx-------|
|--------------------------xxxx-------|
|-4~----------------3-----4xxxx-5~----|
|---5-4-5p4h5-4---3-3-3-3-4xxxx-3~----|
|---------------5-3---3-3-------------|
                      . .
                                                                   x2|
|---------------------------------------------------------------------|
|---------------------------------------------------------------------|
|---------------------------------------------------------------------|
|-0-------1-------4-------3------0-----0----1----1----4----4----3-----|
|-0---0-0-1---0-0-4---0-0-3------0-0-0-0----1----1----4----4----3~----|
|-0---0-0-1---0-0-4---0-0-3------0-0-0-0----1----1----4----4----3~----|
                                   . .
      
    solo                      | you get the idea      |
|-----------------------------|-----------------------|------------------------------|
|-----------------------------|-----------------------|-8b9--------------------------|
|-----------------------------|-7-7-8-8-11-11-10~---10|----/5~-----------------------|
|-----------2~----------------|-7-7-8-8-11-11-10~---10|---------4-----4---4-5-6b7--5-|
|-5~-555555-------------------|-----------------------|-----------4-5---5------------|
|---------------3b4~----3-----|-----------------------|------------------------------|
 
  
|---------------------------------------------------|
|---------------------------------------------------|
|--6b-6b-00-5b-5b-00-6b-6b-00-5b-5b~-----------------|
|----------------------------------------[4]----[2]-|
|----------------------------------------[4]-or-[2]-|
|----------------------------------------[4]----[2]-|
       
FIN.