Eye Flys

From MelvinsWiki
Jump to: navigation, search

"Eye Flys" (Osborne)

Originally appeared on Gluey Porch Treatments, 1987.

Also appears in a live version on Colossus of Destiny, 2001.

Lyrics

I lay like you

I feel the same

Eye flys like you

In touch between

In fact it's moon

Don't blame the rain

That brings you here

And ask yourself

To prove that you're able

To be brave

Guitar TAB

updated by greenhoney, Jan 2006

/ = slide up  
\ = slide down 
^ = bend 
r = let it ring 
. = palm mute 


Get some feedback around this note for three minutes:

e|---------------------------------------------------------
b|---------------------------------------------------------
g|---------------------------------------------------------
d|---------------------------------------------------------
a|---------------------------------------------------------
e|-14------------------------------------------------------
e|---------------------------------------------------------
b|---------------------------------------------------------
g|---------------------------------------------------------
d|-/16--15--16--17--16--14--15----------16----------/14~~--
a|-/16--15--16--17--16--14--15\---------16----------/14~~--
e|-/14--13--14--15--14--12--13\---0/----14~~-etc----/12~~--etc

Get some feedback on and play about with this chord:

e|------------------
b|------------------
g|------------------
d|-4^-----x---------  
a|-4------x---------
e|-2------x----etc--

then (palm-mute lightly):

e|-------------------------------------
b|-------------------------------------
g|-------------------------------------
d|-------------------------------------
a|-------------------------------------
e|-0---2---0---2---3---2---0---1^--0---
   .   .   .   .   .   .   .   .   .

verse

e|-----------------------------------------------------
b|-----------------------------------------------------
g|-----------------------------------------------------
d|-4---4--/9--\5---4---10--9--\4---5---2---3---2---3---
a|-4---4--/9--\5---4---10--9--\4---5---2---3---2---3---
e|-2---2--/7--\3---2---8---7--\2---3---0---1---0---1---
e|-----------------------------------------------------
b|-----------------------------------------------------
g|-----------------------------------------------------
d|-4---4---4---4-------------------12^-12^-12^-12^-12^-
a|-4---4---4---4--/12^-12^-12^-12^-12^-12^-12^-12^-12^-
e|-2---2---2---2---------------------------------------
e|-----------------------------------------
b|-----------------------------------------
g|-----------------------------------------
d|-4---4--/9--\5---4---10--9--\4---5---2---
a|-4---4--/9--\5---4---10--9--\4---5---2---
e|-2---2--/7--\3---2---8---7--\2---3---0--- play this four times
e|-------------
b|-------------
g|-------------
d|-3---2---3---
a|-3---2---3---
e|-1---0---1---
e|-----------------------------------------------------
b|-----------------------------------------------------
g|-----------------------------------------------------
d|-4---4---4---4-------------------12^-12^-12^-12^-12^-
a|-4---4---4---4--/12^-12^-12^-12^-12^-12^-12^-12^-12^-
e|-2---2---2---2---------------------------------------
e|-------------------------
b|-------------------------
g|-------------------------
d|-4---2---2---2---2---2---
a|-4---2---2---2---2---2---
e|-2---0---1---1---1---1--- play this three times
e|---------------
b|---------------
g|---------------
d|-2---2-r-------
a|-2---2-r-------
e|-1---1-r-------

fin.

Bass TAB

intro:

g-----------------|
d-----------------|
a-----------------|
e-------------0---|
g-----------------|-----------------|
d-----------------|-----------------|
a-----------------|-----------------|
e-1---0---2---0---|-2---3---2---0---|  play this line a thousand times


then

g---------|
d---------|
a---------|
e-1---0---|

verse:

g-----------------------------------------------------
d-----------------------------------------------------
a---------2-----------5---4---------------------------
e-2---2-------3---2-----------2---3---0---1---0---1--- 
g-----------------------------------------------------|
d-----------------------------------------------------|
a-----------------------------------------------------|
e-2---2---2---2---2---2---2---2---2---2---2---2---2---|
   
g-----------------------------------------|
d-----------------------------------------|
a---------2-----------5---4---------------|
e-2---2-------3---2-----------2---3---0---|  play this four times
g-------------
d-------------
a-------------
e-1---0---1--- 
g-----------------------------------------------------
d-----------------------------------------------------
a-----------------------------------------------------
e-2---2---2---2---2---2---2---2---2---2---2---2---2---        
g-------------------------|
d-------------------------|
a-------------------------|
e-2---0---1---1---1---1---|  play this three times
g---------------
d---------------
a---------------
e-1---1--------- let ring


fin.