Heater Moves And Eyes

From MelvinsWiki
Jump to: navigation, search

"Heater Moves And Eyes" (Osborne) – 3:52

Originally from Gluey Porch Treatments (1987, vinyl and CD, 1989).

Also appears on the Ipecac re-release of Gluey Porch Treatments.

Lyrics

Problem mines burnin holes thru my walls

You were the best thing in my life til now

Heater moves much more than my heart

And stops

Without a word


Mouths full of your face and truth

And I've been waiting for a pin like you

I waited and seated a year of truce

Your scowl was allowed

You were in love

But you are in love

Guitar TAB

tabbed by TJP


intro                                x3|
e|-------------------------------------|-----------------------------------------|
b|-------------------------------------|-----------------------------------------|
g|-------------------------------------|-----------------------------------------|
d|-------------------------------------|--------------5-6-6~---------------------|
a|-2--2-2-2--8-7-2-2-2--8-7-2-2-2--8-7-|-2--2-2-2-4-5-3-4-6~---7-6-8-7-6-7-4-5-2-|
e|-0--0-0-0--6-5-0-0-0--6-5-0-0-0--6-5-|-0--0-0-0-2-3-----4~---5-4-6-5-4-5-2-3-0-|
        . .        . .        . .             . .               P. H.
             
                                        |        |                                 x3|
e|--------0----0--------0---------------|--------|-----------------------------------|
b|-------0-----0-----00--------00-------|--------|-----------------------------------|
g|-----------------------------44-xx-xx-|--------|-----------------------------------|
d|--------------------------------xx-xx-|-----x--|--------------------------------x--|
a|-2--2--2--2--2--2--2--2--2--2---xx-xx-|-8-7-x7-|-4-2-4-2-4-2-2-4-2-2-2-4-2/-8-7-x7-|
e|-0--0--0--0--0--0--0--0--0--0---xx-xx-|-6-5-x5-|-2-0-2-0-2-0-0-2-0-0-0-2-0/-6-5-x5-|
   .  .  .  .  .  .  .  .  .  .                      .   .   . .   . . .  
       
                                           x2|                                                            x2|
                                                                                                                            
e|--------------------------------------------|
b|--------------------------------------------|
g|--------------------------------------------|
d|---------------------------7^---------------|
a|-2--2-2-2--8-7-2--2-2--8-7-5^-2--2-2--8-7-7-|
e|-0--0-0-0--6-5-0--0-0--6-5----0--0-0--6-5-5-|
      

e|----------------------------------------------------------|  
b|-0-2-5-7-8-8-8-8-8-8-8-8-8-8-8-8-9^-9^-9^-9^-9^-9^-9^--0--|
g|-0-2-5-7-8-8-8-8-8-8-8-8-8-8-8-8-9^-9^-9^-9^-9^-9^-9^--0--|  
d|-------------------------------------------------------0--|    
a|-------------------------------------------------------0--|
e|----------------------------------------------------------|

                                 |                                  x3|      
e|-------------------------------|------------------------------------|
b|-------------------------------|------------------------------------|
g|-------------------------------|------------------------------------|
d|-------------------------------|------------------------------------|
a|-2--2-2-4--4---4-5-7~----2-----|-2-2-2-2-2-2-2-2-2-2-2-2-2-2--3-2-5-|
e|-0--0-0-2--2-0-2-3-5~----0-----|-0-0-0-0-0-0-0-0-0-0-0-0-0-0--1-0-3-|
      . . 
     
                               x3|
e|--------------------------------|-----------------------------------------------------------|
b|--------------------------------|-----------------------------------------------------------|
g|--------------------------------|-----------------------------------------------------------|
d|--------------------------------|-----------------------------------------------------------|
a|-2--2-2-4--4---4-5-7~--2--3-2-5-|-2--2-2-4--4---4-5-7~-------7^~---^~-----^~-8^~--^~--------|
e|-0--0-0-2--2-0-2-3-5~--0--1-0-3-|-0--0-0-2--2-0-2-3-5~---0-0-5^~---^~-----^~-6^~--^~--------|
           
         
                   x2|
e|--------------------|----------------------------------------------------------|
b|--------------------|----------------------------------------------------------|
g|--------------------|----------------------------------------------------------|
d|--------------------|----------------------------------------------------------|
a|-8-5-8-8--8-8-8-8-8-|-8-9-8--8-8--8-9-8--8-8--8-9-8--9-8-9-8-9-8-9-8--8^~----8-|
e|-6-7-6-6--6-6-6-6-6-|-6-7-6--6-6--6-7-6--6-6--6-7-6--7-6-7-6-7-6-7-6--6^~----6-|
                . .            . .         . .
              
FIN.