Hog Leg

From MelvinsWiki
Jump to: navigation, search

Originally from Eggnog, 1991.

Lyrics

HogLegLyrics.jpg



Like Stee Moanin' Ludlow

Rap a tee take a man and send my own

Just then my harr harr

Take a send and tell it take no dess


Hog Leg-And Hog

Force fed and mayby stand up stairs

She's mayby my one choice

Spins nice like a compass pointing North.

Guitar TAB

b bend
x finger mute
. palm mute


intro/bridge
   1   +   2   +   3   +   4   +   
 E----------------------------------|
 B----------------------------------|
 G----------------------------------|
 D----------------------------------|
 A----------------------------------|
 D---------------------5---7---12---|

 E-----------------------------------------------------------------
 B-----------------------------------------------------------------
 G-----------------------------------------------------------------
 D-----------------------------------------------------------------
 A-12b---------12b---------12b---------12b---------12b-----12b-----
 D-12b---------12b---------12b---------12b---------12b-----12b-----

 E-----------------------------------------------------------------
 B-----------------------------------------------------------------
 G-----------------------------------------------------------------
 D-----------------------------------------------------------------
 A-12b-x---x---12b-x---x---12b-x---x---12b-x---x---12b-x---x-------
 D-12b-x---x---12b-x---x---12b-x---x---12b-x---x---12b-x---x-------


verse - play 4x
 E-----------------------------------------------------------------
 B-----------------------------------------------------------------
 G-----------------------------------------------------------------
 D-----------------------------------------------------------------
 A-0-------0---0---0---0---0---0---0---0---0---0---0---0---0---0---
 D-0-------0---0---0---0---0---0---0---0---0---0---0---0---0---0---
           .   .   .   .   .   .   .   .   .   .   .   .   .   .

 E-----------------------------------------------------------------|
 B-----------------------------------------------------------------|
 G-----------------------------------------------------------------|
 D-----------------------------------------------------------------|
 A-12---------11----------12-----------14----------5-------6-------|
 D-12---------11----------12-----------14----------5-------6-------|

                                                 |-----------------|
                                                 |-----------------|
                            alternate with this  |-----------------|
                                                 |-----------------|
                                                 |-----------------|
                                                 |-12--5---7---12--|
                                                 
then bridge

then do this 6x
 E-----------------------------------------------------------------
 B-----------------------------------------------------------------
 G-----------------------------------------------------------------
 D-----------------------------------------------------------------
 A-0-0-0-0-0-0-0-0-0-0-0-0-0-0-0-0-0-0-0-0-0-0-0-0-0-0-0-0-0-0-0-0-
 D-0-0-0-0-0-0-0-0-0-0-0-0-0-0-0-0-0-0-0-0-0-0-0-0-0-0-0-0-0-0-0-0-
     x x x x x   x x x x x x x x x   x x x x x   x x x x x x x x x


high pitched feedback for a few seconds

then - 2x
 E-----------------------------------------------------------------
 B-----------------------------------------------------------------
 G-----------------------------------------------------------------
 D-5-5-5-5-5-5-5-5-6-6-6-6-6-6-6-6-7-7-7-7-7-7-7-7-8-8-8-8-8-8-8-8-
 A-5-5-5-5-5-5-5-5-6-6-6-6-6-6-6-6-7-7-7-7-7-7-7-7-8-8-8-8-8-8-8-8-
 D-----------------------------------------------------------------

 E-----------------------------------------------------------------
 B-----------------------------------------------------------------
 G-----------------------------------------------------------------
 D-9-9-9-9-9-9-9-9-101010101010101011111111111111111212121212121212
 A-9-9-9-9-9-9-9-9-101010101010101011111111111111111212121212121212
 D-----------------------------------------------------------------

and then - 4x  
 E-----------------------------------------------------------------
 B-----------------------------------------------------------------
 G-----------------------------------------------------------------
 D-121212121212121212121212120-0-0-121212121212121212121212120-0-0-
 A-121212121212121212121212120-0-0-121212121212121212121212120-0-0-
 D-----------------------------------------------------------------

and back to verse

outro 
 E----------------------------------|-----------------------------------
 B----------------------------------|-----------------------------------
 G----------------------------------|-----------------------------------
 D----------------------------------|-----------------------------------
 A----------------------------------|-12b-------------------------------
 D---------------------5---7---12---|-12b-------------------------------

                                    |-----------------------------------
                                    |-----------------------------------
                                    |-----------------------------------
                                    |-----------------------------------
                                    |-5b--------------------------------
                                    |-5b--------------------------------


                                    |-----------------------------------
                                    |-----------------------------------
                                    |-----------------------------------
                                    |-----------------------------------
                                    |-----------------------------------
                                    |-more o that squealin feedback!!!!-