Hung Bunny

From MelvinsWiki
Jump to: navigation, search

"Hung Bunny" - 10:22

Originally from Lysol, 1992 on Boner Records.

Lyrics

(Instrumental)

Guitar TAB

updated Sep 2009

Tuning: C-G-C-F-A-D


"Hung Bunny"

First get some feedback on this chord:

|---------
|---------
|---------
|-0-------
|-0-------
|-0-------

And play this sequence 4 times:

  1+a2+a3+a4+a+a+1+a2+a3+a4+a+a+1+a2+a3+a4+a+a+1+a2+a3+a4+a+a+1+a2+a3+a4+a+a
||---------------------------------------------------------------------------
||---------------------------------------------------------------------------
||(7)-7--7-/7-----7--7--7-/7-----7--7--7-/7-----7--7--7-/7-----7b-7b-7b-7b---
||(7)-7--7-/7-----7--7--7-/7-----7--7--7-/7-----7--7--7-/7-----7b-7b-7b-7b---
||(5)-5--5-/5-----5--5--5-/5-----5--5--5-/5-----5--5--5-/5-----5b-5b-5b-5b---
||-0--0--0-/0-----0--0--0-/0-----0--0--0-/0-----0--0--0-/0-----0--0--0--0----
 // - At first play this very loosely   -   Improvise the rhythm a little - \\      
 
  1+a2+a3+a4+a+a1+a2+a3+a4+a+a1+a2+a3+a4+a+a1+a2+a3+a4+a+
|--------------------------------------------------------
|--------------------------------------------------------
|-5-----5--5--5--5----5--5b----5-/7---7--7-\-------------
|-5-----5--5--5--5----5--5b-0--5-/7---7--7-\6------------
|-3-----3--3--3--3----3--3b-0--3-/5---5--5-\6------------
|---------------------------0---------0--0--6------------
  1+a2+a3+a4+a1+a1+a2+a3+a4+a1+a1+a2+a3+a4+a1+a1+a2+a3+a4+a+
|-----------------------------------------------------------||
|-----------------------------------------------------------||
|----------------------3-----3--3--3--3----3--3--3b---/7----||
|-0--0--1--1--1--1b-0--3-----3--3--3--3----3--3--3b-2-/7----||
|-0--0--1--1--1--1b-0--3-----1--1--1--1----1--1--1b-2-/5----||
|-0--0--1--1--1--1b-0-------------------------------0--0----||


Then after you've played that 4 times, instead of playing the last chord, go to the next section. This is where the drums come in:

|-----------------------------------------------
|-----------------------------------------------
|-5-R-------------------------------------------
|-5-R--------------------0-R-------------------- play 6x
|-3-R--------------------0-R--------------------
|------------------------0-R--------------------

The last chord above is where Dale does the cymbal roll. After this chord is held for a short time, play the main riff/verse of "Roman Dog Bird".


Key:

~ = vibrato    h = natural harmonic   
b = bend       . =  palm mute        
/ = slide up   \ = slide down        
R = let note ring

Guitar TAB

tabbed by Matt Helmick
aroy@Euclid.DnE.wvnet.edu

Well, first things first. If you do not own "Lysol" or haven't heard it, then this transcription is going to be worthless to you. So go get it! Even if you have it and are familiar with it, you may have some difficulty understanding what the hell I am talking about.

The guitar is tuned accordingly, from low to high: C#,F#,B,E,G#,C#.

The two higher strings aren't used at all, so in the transcription, I have ommitted them.

The first song on Lysol, (the Intro, I think) is basically a "free time" style song, meaning that you can play it at your own speed. There really isn't an intelligible meter, so I have dubbed it "Free Time".

NOTATION

Upon getting the transcription, I suggest that you play along with the recording by the Melvins. There are various bends and palm mutes, and I will try to notate them as they appear.


|------3-------7/9------2---------------------3---|
|--2---3---2---7/9--2---2--2---3--3--3--3--2--3---|
|--2---1---2---5/7--2---0--2---3--3--3--3--2--1---|
|--0-------0--------0------0---1--1--1--1--0------|     repeat this many times.Then go to the next section:



|------3-------7---|
|--2---3---2---7---|
|--2---1---2---5---|
|--0-------0-------|   This is where Dale starts punding on the bass and low tom. Hold the last chord until the band proceeds:



|--------7-----------7-----------7----------7-------7---------|
|--2-----7-----2-----7-----2-----7----2-----7---2---7----2----|
|--2-----5-----2-----5-----2-----5----2-----5---2---5----2----|
|--0-----------0-----------0----------0---------0--------0----|


the last chord above is where Dale does the cymbal roll and it turns CHAOTIC!!!

If you listen close to the recording, after this chord is held for a short time, Buzz starts playing the main riff of the SECOND SONG, and it is as follows:


|---------------------------------------------------------3--3--3--
|---2-2-2-2-2-2-2-2-2-2-2-2-3--3--3-2-2-2-2-2-2-2-2-2-2-2-3--3--3--
|---2-2-2-2-2-2-2-2-2-2-2-2-3--3--3-2-2-2-2-2-2-2-2-2-2-2-1--1--1--
|---0-0-0-0-0-0-0-0-0-0-0-0-1--1--1-0-0-0-0-0-0-0-0-0-0-0-----------


The above is the main riff under the vocals for the entire song except the chorus and end. The last chord should bend to resolve with the first chord in the above.

It should be repeated (four or six?) times, and then the chorus section comes in with:


|------------------------
|---5----------------0---
|---5-----3----------0---
|---3---3---3--1--3--1---  

Hold this last chord for a shortime, until the vocals are almost over for the "chorus" section. On the last "word" that Buzz sings (whatever that may be), this muted section comes in. I have notated the chords to be palm muted with x's under the chords, and the section is as follows:

|---------------3--3-3---3---3-----------------3------7---8/9---
|--2--2--2--2-2-3--3-3-3-3-3-3-3-2-2-2-2-2-2-2-3---3--7---8/9---
|--2--2--2--2-2-1--1-1-3-1-3-1-----2-2-2-2-2-2-1---3--5---6/7---
|--0--0--0--0-0--------1---1-------0-0-0-0-0-0-----1----0-------
                    x  x

|--------------3-----------
|----2-2-2-2-2-3--3---5-2--
|----2-2-2-2-2-1--3---5-2--
|--0-0-0-0-0-0----1---3-0-- 
     x     x     x  x 

Now that you have gotten this far, go all the way back to the section of "Main riff Under Vocals" and do it all again. The only difference is that on the second time thru, the last two chords in the line above are replaced with:

|-------------------
|-------------------
|-------------------
|--0-nh12-----nh12--  The nh12 means natural harmonics on the 12th fret. 

Proceed to the next bar:


|-----------------------------------------7-------10--9--
|--2--2-2-2-2-2-0--0--0-0-0-0-0-0-0-0-0-0-7--2--3-10--9--
|--2--2-2-2-2-2-0--0--0-0-0-0-0-0-0-0-0-0-5--2--3--8--7--
|--0--0-0-0-1-0-0--0--3-0-5-0-3-0-3-0-3-0----0--1---------



|----------7--6--7--8-9-----
|--8-9-8-7-7--6--7--8-9--2--
|--------7-5--4--5--6-7--2--
|------------------------0-- 

Repeat this as needed and when Buzz starts singing again, the chords are as follows: (NOTE: the last chord of the above diagram should be held to join the first note below):


|----------------7---9---7----
|--2-------------7---9---7----
|--2----6~~~-----5---7---5-----
|--0--------------------------- To conclude this masterpiece, the bar is as follows:



|--9--8--7-----------
|--9--8--7-----------
|--7--6--5-----------
|-------------nh12--- Hold that natural harmonic, and let your amp build up feedback, and, voila! Into Infinity!!