Hung bunny/roman dog bird

From MelvinsWiki
Jump to navigation Jump to search

"Hung Bunny/Roman Dog Bird" - 17:60

Originally from Lysol, 1992 on Boner Records.

Lyrics

"Hung Bunny"

(Instrumental)


"Roman Dog Bird"


Lysol to get me high

You're sure to smell the fear

Baby you can see-saw sun

And like to be


She wants like animal

I can walk and be so free

She wants it like menopause

But I can walk like them


She falls like the well-worn one

I can be one by one look a little word


Half of you can get so sore

I go too well by feel

It's sure to get you there

I'm fade to see


She wants like animal

I can walk but be so free

She walks in like menopause

But I can walk like them


She looks like a well-worn one

I can be one by one look a little word


I could've felt no woman like you

Under the well warm dish just fine

I could've felt no woman like you

Under the well warm dish you're fine now

Guitar TAB

updated Sep 2009

Tuning: C-G-C-F-A-D


"Hung Bunny"

First get some feedback on this chord:

|---------
|---------
|---------
|-0-------
|-0-------
|-0-------

And play this sequence 4 times:

  1+a2+a3+a4+a+a+1+a2+a3+a4+a+a+1+a2+a3+a4+a+a+1+a2+a3+a4+a+a+1+a2+a3+a4+a+a
||---------------------------------------------------------------------------
||---------------------------------------------------------------------------
||(7)-7--7-/7-----7--7--7-/7-----7--7--7-/7-----7--7--7-/7-----7b-7b-7b-7b---
||(7)-7--7-/7-----7--7--7-/7-----7--7--7-/7-----7--7--7-/7-----7b-7b-7b-7b---
||(5)-5--5-/5-----5--5--5-/5-----5--5--5-/5-----5--5--5-/5-----5b-5b-5b-5b---
||-0--0--0-/0-----0--0--0-/0-----0--0--0-/0-----0--0--0-/0-----0--0--0--0----
 // - At first play this very loosely   -   Improvise the rhythm a little - \\      
 
  1+a2+a3+a4+a+a1+a2+a3+a4+a+a1+a2+a3+a4+a+a1+a2+a3+a4+a+
|--------------------------------------------------------
|--------------------------------------------------------
|-5-----5--5--5--5----5--5b----5-/7---7--7-\-------------
|-5-----5--5--5--5----5--5b-0--5-/7---7--7-\6------------
|-3-----3--3--3--3----3--3b-0--3-/5---5--5-\6------------
|---------------------------0---------0--0--6------------
  1+a2+a3+a4+a1+a1+a2+a3+a4+a1+a1+a2+a3+a4+a1+a1+a2+a3+a4+a+
|-----------------------------------------------------------||
|-----------------------------------------------------------||
|----------------------3-----3--3--3--3----3--3--3b---/7----||
|-0--0--1--1--1--1b-0--3-----3--3--3--3----3--3--3b-2-/7----||
|-0--0--1--1--1--1b-0--3-----1--1--1--1----1--1--1b-2-/5----||
|-0--0--1--1--1--1b-0-------------------------------0--0----||


Then after you've played that 4 times, instead of playing the last chord, go to the next section. This is where the drums come in:

|-----------------------------------------------
|-----------------------------------------------
|-5-R-------------------------------------------
|-5-R--------------------0-R-------------------- play 6x
|-3-R--------------------0-R--------------------
|------------------------0-R--------------------

The last chord above is where Dale does the cymbal roll. After this chord is held for a short time, play the main riff/verse of "Roman Bird Dog", which is as follows.


"Roman Bird Dog"

Play it 8 times first time, 4 times second time:

|-------------------------------------------------------------------|
|-------------------------------------------------------------------|
|-------------------------------------------------------------------|
|-0-0-0-0-0-0-0-0-0-0-0-1---1---1-0-0-0-0-0-0-0-0-0-0-0-6---6---6---|
|-0-0-0-0-0-0-0-0-0-0-0-1---1---1-0-0-0-0-0-0-0-0-0-0-0-6---6---6---|
|-0-0-0-0-0-0-0-0-0-0-0-1---1---1-0-0-0-0-0-0-0-0-0-0-0-6---6---6---|
  . . . . . . . . . . .           . . . . . . . . . . .


"She looks like a well-worn one" part: (skip the last chord above when going into this)

|---------------------------------|---------------------------------
|---------------------------------|---------------------------------
|---------------------------------|---------------------------------
|-3-----3-----3-3---3-3---1-------|-1-~-----------------------------
|-3-----3-----3-3---3-3-3-1-3-1-3-|-1-~-----------------------------
|-3-----3-----3-3---3-3-3---3-1-3-|-1-~-----------------------------
|---------------------------------|----------------------------------
|---------------------------------|----------------------------------
|-------------------------------8-|-7-----------------------5----6-7-
|-0---0-0-0-0-0-6---6-6-1-6-1-6-8-|-7-0-0-0-0-0-0-6---1-----5----6-7-
|-0---0-0-0-0-0-6---6-6-1-6-1-6-6-|-5-0-0-0-0-0-0-6---1-----3----4-5-
|-0---0-0-0-0-0-6---6-6-0-6-0-6---|---0-0-0-0-0-0-6---1--------------
          .   .                       . . . .
                                                  1   2   3   4  
|---------------------------------|----------------------------------
|---------------------------------|----------------------------------
|-------------------------------8-|-7--------------------------------
|-0---0-0-0-0-0-6---6-6-1-6-1-6-8-|-7-0-0-0-0-0-0-6-R----------------
|-0---0-0-0-0-0-6---6-6-1-6-1-6-6-|-5-0-0-0-0-0-0-6-R----------------
|-0---0-0-0-0-0-6---6-6-0-6-0-6---|---0-0-0-0-0-0-6-R----------------
          .   .                       . . . .
  1   2   3   4    1   2   3   4    1   2   3   4    1   2   3   4 +   
|---------------------------------|--------------------------------------|
|---------------------------------|--------------------------------------|
|---------------------------------|--------------------------------------|
|-1-R-----------------------------|--------------------------------3b\(0)|
|-1-R-----------------------------|--------------------------------3b\(0)|
|-1-R-----------------------------|--------------------------------3b\(0)|
|Just play up to here second time>|

Once you've got this far return to the Verse and play it all again.

Proceed to the next bar:

|---------------------------------|---------------------------------
|---------------------------------|---------------------------------
|-7-----7-----7-----------7-------|-6~------------------------------
|-7-----7-----7-----0-0-0-7-0-1-0-|-6~--------0-3-0-3-0-3-0-3-0-3-0-
|-5-----5-----5-----0-0-0-5-0-1-0-|-4~--------0-3-0-3-0-3-0-3-0-3-0-
|-------------0-----0-0-0-0-0-1-0-|-----------0-3-0-3-0-3-0-3-0-3-0-

Outro - Repeat this 5 times:

|-----------------------------------------------------
|-----------------------------------------------------
|-5-----------------------------/8--------------------
|-5---------0---------1---------/8--------------------
|-3---------0---------1---------/6--------------------
|-----------0---------1-------------------------------
|--------------------------------------------------------
|--------------------------------------------------------
|-7---6-7-6---5~~--4~~--5---6---7------------------------
|-7---6-7-6-5-5~~--4~~--5---6---7------------------------
|-5---------5-3~~--2~~--3---4---5------------------------
|-0-----------------------------0------------------------

End on this

|--------------------------------|
|--------------------------------|
|-7------------------------------|
|-7------------------------------|
|-5------------------------------|
|-0------------------------------|

Build feedback....

Key:

~ = vibrato    h = natural harmonic   
b = bend       . =  palm mute        
/ = slide up   \ = slide down        
R = let note ring