Influence of Atmosphere

From MelvinsWiki
Jump to: navigation, search

"Influence of Atmosphere" (Osborne) – 1:51

Originally from Gluey Porch Treatments (1987, vinyl and CD, 1989).

Also appears on the Ipecac re-release of Gluey Porch Treatments.

Lyrics

That point


You're the adult to reign

And seein you

Take it away


I look into your glass eye, take it

By surprise


Guitar TAB

Influence of Atmosphere - Melvins

Tabbed by TJP


The dots are P.M.

I N T R O
e|--------------------------------------|-------------------------------|
b|--------------------------------------|-------------------------------|
g|--------------------------------------|-------------------------------|
d|--------0------0-------0------0-------|-3-2-3-2-3-4-3-4-3-2-3-2--0----|
a|-0------0---6^-0---6-6-0----6-0---6-6-|-3-2-3-2-3-4-3-4-3-2-3-2--0----|
D|-0------0---6^-0---6-6-0----6-0---6-6-|-3-2-3---3---3---3-2-3-2--0----|
                                              |__________|
                                               play around
                                               with the P.H.   
e|------------|
b|------------|
g|------------|
d|------------|
a|-6^-0---6-6-|
D|-6^-0---6-6-|
                                                                                   
                                                                     
e|-------------------------------|----------------|
b|-------------------------------|----------------|
g|-------------------------------|----------------|
d|-3-2-3-2-3-4-3-4-3-2-3-2--0----|----------------|
a|-3-2-3-2-3-4-3-4-3-2-3-2--0----|-6^-0---6-6-0---|
D|-3-2-3---3---3---3-2-3-2--0----|-6^-0---6-6-0---|
                                                                                                  
                                                                                                                 
V  E  R  S  E
e|-------------------------------------------------------------------------------------|
b|-------------------------------------------------------------------------------------|
g|-------------------------------------------------------------------------------------|
d|-----3------------------3------------------3-----------------3-------------5-5-----3-|
a|-2-2-3--------------2-2-3-2-0-1-2-0-3--2-2-3-2-0-1-2-0-3-2-2-3-2-0-1-2-0-3-5-5-0-0-3-|
d|-2-2---2-0-1-2-0-3--2-2---2-0-1-2-0-3--2-2---2-0-1-2-0-3-2-2---2-0-1-2-0-3-5-5-0-0-3-|
   . . |____________|   .   |__________| . .   . . . . . . . .   . . . . . .     . .
       use a bit of         use a bit 
          P.H.              of P.H.
e|------------------------------------------------------|
b|--------------------------------------xx----xx--------|
g|--------------------------------------xx----xx--------|
d|-----------------3-------------5-5-----3-3------0-----|
a|-2-0-1-2-0-3-2-2-3-2-0-1-2-0-3-5-5-0-0-3-3------0-----|
d|-2-0-1-2-0-3-2-2---2-0-1-2-0-3-5-5-0-0-3-3------0-----|
   . . . . . . . .   . . . . . .     . .

O U T R O 
                |                          x2|
e|--------------|----------------------------|------------------------|
b|--------------|----------------------------|------------------------|
g|--------------|----------------------------|------------------------|
d|--------------|----------------------------|------------------------|
a|--------------|-0-0-3-0-2--2-2-2-0-2-3-1-0-|-0-0-3-0-2--2-2-2-0---3-|
d|-2-0-2-3-1-0--|-0-0-3-0-2--2-2-2-0-2-3-1-0-|-0-0-3-0-2--2-2-2-0---3-|
                  . .   .    . .               . .   .    . .

FIN.