Larry

From MelvinsWiki
Jump to: navigation, search

Guitar Tab

tabbed by buster@community.net

This song is in drop D tuning (drop the top E string to D)

All the chords in this song are done on the top 3 strings as

far as I know so those are the only one I'll show.



fig.1



d--7-7---7-9--77-9--5-3-2-

a--7-7---7-9--77-9--5-3-2-

D--5-7---7-9--77-9--5-3-2-



this is the intro - play 3x then



fig.2

d--7-77--7-77--7-77--7-77--7-0-----

a--7-77--7-77--7-77--7-77--7-0-----  

D--5-77--5-77--5-77--5-77--5-0-----



lower the open notes slightly with the tremelo while the bass does it's fill



fig.3

d--00--6-66-5-3-0-|--6-66-5-3-0-|--6-66-5-3-0-|--6-66-5-3-0-|

a--00--6-66-5-3-0-|--6-66-5-3-0-|--6-66-5-3-0-|--6-66-5-3-0-|

D--00--6-66-5-3-0-|--6-66-5-3-0-|--6-66-5-3-0-|--6-66-5-3-0-|

  ^^^^

palm mute



then there's a quick little fucked up part where he just slides his

fingers lightly across the strings. Just do the area marked in fig.3

once and it should work. 



fig. 4

d--00--6-66-5-3-0-|--6-6-5-3-5--5-8-5-7-8-7-5-|

a--00--6-66-5-3-0-|--6-6-5-3-5--5-8-5-7-8-7-5-|

D--00--6-66-5-3-0-|--6-6-5-3-5--5-8-5-7-8-7-5-|

  ^^^^

palm mute



then do fig.3 again and end it leaving the open strings ringing, leading into

fig.5



fig.5

d--0--2--3--1--0--|--0--2--3--1--0--|

a--0--2--3--1--0--|--0--2--3--1--0--|

D--0--2--3--1--0--|--0--2--3--1--0--|



If you listen to the song, you can tell that they use the tremelo a few times on 

the open notes



The song picks up speed here



fig.6

d--10-9-7-9-99|--10-9-7-9-99|--10-9-7-9-99|--10-9-7-9-99|

a--10-9-7-9-99|--10-9-7-9-99|--10-9-7-9-99|--10-9-7-9-99|

D--10-9-7-9-99|--10-9-7-9-99|--10-9-7-9-99|--10-9-7-9-99|



which leads into this



fig.7

d--10-9-7-5-3-3|--10-9-7-5-3-3|--10-9-7-5-3-3|--10-9-7-5-3--5--7-9-99

a--10-9-7-5-3-3|--10-9-7-5-3-3|--10-9-7-5-3-3|--10-9-7-5-3--5--7-9-99

D--10-9-7-5-3-3|--10-9-7-5-3-3|--10-9-7-5-3-3|--10-9-7-5-3--5--7-9-99



I get kind of lost here and what I figured out probably isn't right

so I just tabbed out the individual parts in order

fig.8

d-12-10-9-7-77-|                                -12-10-9-7-77-|

a-12-10-9-7-77-|        then a bass fill then - -12-10-9-7-77-| then something else (?)

D-12-10-9-7-77-|                                -12-10-9-7-77-|



fig.9

d-10-1010-9-7-|-10-1010-9-7-|

a-10-1010-9-7-|-10-1010-9-7-|

D-10-1010-9-7-|-10-1010-9-7-|



then play the rif in fig.3 4x and then use the fill at the end of fig.4 on the 4th one

then play the rif in fig.3 again and end with the open strings ringing