Lone Rose Holding Now

From MelvinsWiki
Jump to: navigation, search

"Lone Rose Holding Now" (Osborne) – 2:23

Originally from The Bootlicker, 1999.

Lyrics

Green and it goes with the gold
Lights with the sound
Standing alone


Alive it shines with the star
Lifting my hand
Holding my eyes


Lone rose holding now
Lone rose holding now
Lone rose holding now


Guitar Tab

4/4

intro
  2x
e|----------------|----------------|----------------|----------------|
b|----------------|----------------|----------------|----------------|
g|------------0---|----------------|------------0---|----------------|
d|2=--------2---2-|1=--------1---1-|2=--------2---2-|1-2-1=----1---1-|
a|----------------|------------2---|----------------|------------2---|
E|----------------|----------------|----------------|----------------|
verse
  /---------------x3--------------\
e|----------------|----------------|----------------|----------------|
b|----------------|----------------|----------------|----------------|
g|----------------|----------------|----------------|----------------|
d|2=--------------|----------------|----------------|----------------|
a|----------------|----------------|2=--------------|----------------|
E|----------------|----------------|----------------|----------------|
chorus 
  2x
e|----------------|----------------|
b|----------------|----------------|
g|--------------2/|1---------------|
d|1-1-1-1-2/1-----|----2/1---------|
a|----------------|----------2/1---|
E|----------------|----------------|
intro 2x
verse 4x
chorus 4x
bridge
e|----------------|----------------|
b|----------------|----------------|
g|----------------|----------------|
d|2/1---2/1---2/1-|--2/1---2/1-----|
a|----------------|----------------|
E|----------------|----------------|
outro
  3x
e|----------------|----------------|----------------|----------------|
b|----------------|----------------|----------------|----------------|
g|------4-----2---|--1-----2---1---|------3-----1---|--0=------------|
d|2---------------|----------------|1---------------|----------------|
a|----------------|----------------|----------------|----------------|
E|----------------|----------------|----------------|----------------|

e|----------------|----------------|
b|----------------|----------------|
g|----------------|----------------|
d|----------------|----------------|
a|3-3-3-xxx-3-2-3-|4-4-4-----------|
E|----------------|----------------|
b  bend       x  mute  
h hammer on   p  pull off  
=  hold note