Magic Pig Detective

From MelvinsWiki
Jump to: navigation, search

"Magic Pig Detective" (words/music: Osborne) – 5:33

Originally from Stoner Witch, 1994

Lyrics

Low soul in a manic

Feels so only queen

A deep tripe for a wander aimless

Just fakes his green

Cuz I say no you're mine

And I'm no only nine feed

You got a cross confusing my ages

Not yet more me


Cuz I say you're in a ready

Bleach-hearted boy wretched voice indeed

A prosthetic you waitin to destroy


Two sides to Dylan's haw hee

Feeling like a cemetary

Karpick a what is in me

A drill a sin try to kill it

I sit on a quire haw hee

Gettin like a titty single only

A bottom make a cell it's time to bleed

Tee, la-la hee-hee


Pig try to give it to you

Killin' like a hundred an fifteen in

Feed Birmingham.


Guitar TAB

(3m:33s) 
  E|-------------------------
  B|-------------------------
  G|-------------------------
  d|--7----------------------
  a|--5----------5-----4-----
  e|-------------3-----2-----

      1  +  2  +  3  +  4  + 
  E|-------------------------|
  B|-------------------------|
  G|-------------------------|
  d|-------------------------|
  a|-------------------------|
  e|-------------------------|
    
   Riff 1: (x4)
  
      1  +  2  +  3  +  4  +  1  +  2  +  3  +  4  + 
  E|--------------------------------------------------|
  B|--------------------------------------------------|
  G|--------------------------------------------------|
  d|--------------------------------------------------|
  a|--4--4--4--4--4--4--4--4--4/-5--5--7--------------|
  e|--2--2--2--2--2--2--2--2--2/-3--3--5-----0--3p-0--|
      *  *     *  *  *     *        *   
  E|--------------------------------------------------|
  B|--------------------------------------------------|
  G|--------------------------------------------------|
  d|--------------------------------------------------|
  a|--4--4--4--4--4--4--4--4--4/-5--5--2--------------|
  e|--2--2--2--2--2--2--2--2--2/-3--3--0-----0--3p-0--|
      *  *     *  *  *     *        *   

   Riff 2:

      1  +  2  +  3  +  4  +  1  +  2  +  3  +  4  + 
  E|--------------------------------------------------|
  B|--------------------------------------------------|
  G|--------------------------------------------------|
  d|--------3--------3--------3-----------------------|
  a|--2--2-----2--2-----2--2-----2--2-----------------|
  e|-----------------------------------3--------3--0--|
  
  E|--------------------------------------------------|
  B|--------------------------------------------------|
  G|--------------------------------------------------|
  d|--------3--2-----0-----------0--------------------|
  a|--2-----------0-----0--2--0-----0--2--0--1-----2--|
  e|--------------------------------------------------|
  
  E|--------------------------------------------------|
  B|--------------------------------------------------|
  G|--------------------------------------------------|
  d|--------3--------3--------3-----------------------|
  a|-----2-----2--2-----2--2-----2--2-----------------|
  e|-----------------------------------3-----3--0--2--|
    
  E|-----------------------------------------------|
  B|-----------------------------------------------|
  G|-----------------------------------------------|
  d|-----------------------------------------------|
  a|--0--1--2--0--3--0--2--0--1--0--2--0--3--2--0--|
  e|-----------------------------------------------|

   Riff 3:

      1  +  2  +  3  +  4  +  1  +  2  +  3  +  4  +   
  E|--------------------------------------------------|
  B|--------------------------------------------------|
  G|--------------------------------------------------|
  d|-----------5--------------------------------------|
  a|--4--4--4--3--------------------------------------|
  e|--2--2--2--------------------------------0--3p-0--|
         *  *                                         
  E|--------------------------------------------------|
  B|--------------------------------------------------|
  G|--------------------------------------------------|
  d|--------------------------------------------------|
  a|--4--4--4--4--4--4--4--4--4--4--4--4--4--x--------|
  e|--2--2--2--2--2--2--2--2--2--2--2--2--2--x--3p-0--|
         *  *     *  *     *  *     *  *             

  E|--------------------------------------------------|
  B|--------------------------------------------------|
  G|--------------------------------------------------|
  d|--------4/-5--------------------------------------|
  a|--4--4--2/-3--------------------------------------|
  e|--2--2-----------------------------------0--3p-0--|

  E|--------------------------------------------------|
  B|--------------------------------------------------|
  G|--------------------------------------------------|
  d|--------------------------------------------------|
  a|--4--4444--4--4444--4--4444--4--4444--4--44-------|
  e|--2--2222--2--2222--2--2222--2--2222--2--22--3p0--|
         ****     ****     ****     ****     **       

  E|--------------------------------------------------|
  B|--------------------------------------------------|
  G|--------------------------------------------------|
  d|-------4/--5--------------5--5--5--5--5--5--5--5--|
  a|--4\-1/2/--3--------------3--3--3--3--3--3--3--3--|
  e|--4\-1/-------------------------------------------|

   
   Riff 4:

      1  +  2  +  3  +  4  +  1  +  2  +  3  +  4  +   
  E|--------------------------------------------------|
  B|--------------------------------------------------|
  G|--------------------------------------------------|
  d|--------------------------------------------------|
  a|--6\-4--4--4--4--6--6--6--6--6--6--7--7--7--4--4--|
  e|--4\-2--2--2--2--4--4--4--4--4--4--5--5--5--2--2--|
            *  *  *     *  *     *  *     *  *     *   

  E|--------------------------------------------------|
  B|--------------------------------------------------|
  G|--------------------------------------------------|
  d|--------------------------------------------------|
  a|--6\-4--4--4--4--6--6--6--4--4--4--5--5--5--0--0--|
  e|--4\-2--2--2--2--4--4--4--2--2--2--3--3--3--2--2--|
            *  *  *     *  *     *  *     *  *     *   

    Repeat last two bars twice

  E|--------------------------------------------------|
  B|--------------------------------------------------|
  G|--------------------------------------------------|
  d|--------------------------------------------------|
  a|--6\-4--4--4--4--6--6--6--6--6--6--7--7--7--4--4--|
  e|--4\-2--2--2--2--4--4--4--4--4--4--5--5--5--2--2--|
            *  *  *  *  *  *  *  *  *  *  *  *  *  *   

  E|--------------------------------------------------|
  B|--------------------------------------------------|
  G|--------------------------------------------------|
  d|--------------------------------------------------|
  a|--6\-4--4--4--4--6--6--6--4--4--4--5--5--5--0--0--|
  e|--4\-2--2--2--2--4--4--4--2--2--2--3--3--3--2--2--|
            *  *  *  *  *  *  *  *  *  *  *  *  *  *   
    *Repeat last two bars four times

    Solo:

     1  +  2  +  3  +  4  +  1  +  2  +  3  +  4  +   
  E|--------------------------------------------------|
  B|--------------------------------------------------|
  G|--------------------------------------------------|
  g|--11----11--11--11--11b12-------------------------|
  d|--------------------------------------------------|
  a|--------------------------------------------------|
  e|--------------------------------------------------|

  E|--------------------------------------------------|
  B|--------------------------------------------------|
  G|--------------------------------------------------|
  g|--9-----11----------------------------------------|
  d|------------9-----11--11--9--7--------------------|
  a|--------------------------------9--7--9--7--9~~---|
  e|--------------------------------------------------|

  E|--------------------------------------------------|
  B|--------------------------------------------------|
  g|--7--6-------------7-----7---------------6--------|
  d|-------7--6--7--6-----6-----6--7-----6------6--5--|
  a|----------------------------------6-----6---------|
  e|--------------------------------------------------|
 
  E|--------------------------------------------------|
  B|--------------------------------------------------|
  g|--------------------------------------------------|
  d|--4-----------------------------------------------|
  a|-----4--4--4--5b6-6----4---------------------5\---|
  e|--------------------------2--2---------------3\---|
  
   Riff 5: (X3)
      
      1  +  2  +  3  +  4  +  1  +  2  +  3  +  4  +   
  E|--------------------------------------------------|
  B|--------------------------------------------------|
  g|--------------------------------------------------|
  d|--------------------------------------------------|
  a|--4--4--4--4/-5\-4--2-------------------3--2------|
  e|--2--2--2--2/-3\-2--0--2----2--0--2--3--------3---|
         *  *

   Outro:

      1  +  2  +  3  +  4  +  1  +  2  +  3  +  4  +   
  E|--------------------------------------------------|
  B|--------------------------------------------------|
  g|--------------------------------------------------|
  d|--------------------------------------------------|
  a|--------3-----------3-----------------------------|
  e|--2--3-----0--2--3-----0--2--3--2--3--2--3--2--3--|

  E|--------------------------------------------------|
  B|--------------------------------------------------|
  g|--------------------------------------------------|
  d|--------------------------------------------------|
  a|-2------------------------------------------------|
  e|-0------------------------------------------------|

  E|--------------------------------------|
  B|--------------------------------------|
  g|--------------------------------------|
  d|--------------------------------------|
  a|--------------4--x--x--x--4--4--------|
  e|--3--2--0--2--2--x--x--x--2--2--------|