Matt-Alec

From MelvinsWiki
Jump to: navigation, search

Matt-Alec from Mangled Demos from 1983

Lyrics

I'm sitting here trying

I'm sitting here trying, all my

My useless crying

My useless crying gets me,

It gets me nothing

It gets me nothing, I know

I'll never beat you

And so I bang my head


I'm poundin the walls and I see red

I bang my head

Well I'm biding my time until I'm dead


It gives me courage

It gives me courage to be

So discouraged

I'm so discouraged and I

Dont have to worry

I dont have to worry, I know

I'll never beat you

And so I bang my head


I'm poundin the walls and I see red

I bang my head

I'm biding my time until I'm dead


Give up

Give up, submit, and say you're wrong

Give up

Give up to me

Give up

Give up, submit, and say you're wrong

Give up


I'm sick of trying

I'm sick of trying, all my

My useless crying

My useless crying gets me,

It gets me nothing

It gets me nothing, I know

I'll never beat you

And so I bang my head

Guitar TAB

Intro/Verse

e|-----------------|-----------------|
b|-----------------|-----------------|
g|-----------------|-----------------|
d|-----------------|-----------------|
a|-6-6-6-7-7-7-7-5-|-6-6-6-7-7-7-7/6-|  7x
e|-4-4-4-5-5-5-5-5-|-4-4-4-5-5-5-5/4-|
P-M. . . . . . . .   . . . . . . 


                           "bang my...
                            ---------|
                            ---------|
                            ---------|
                            ---------|
                            -7---5---|
                            -5---3---|

Chorus ...head"

e|-----------------|-----------------|----------------|-----------------
b|-----------------|-----------------|----------------|-----------------
g|-----------------|-----------------|----------------|-----------------
d|-----------------|-----------------|--------------7-|-7-7-7-0---------
a|-2---2-2-2-2-2-2-|-4-4-4-5-5-5-7-5-|2---2-2-2-2-2-5-|-5-5-5-0-7---5---  2x
e|-0---0-0-0-0-0-0-|-2-2-2-3-3-3-5-3-|0---0-0-0-0-0---|---------5---3---

Last bar 2nd time:

e|-----------------
b|-----------------
g|-----------------
d|-----------------
a|-5~5~5\7~--7~----
e|-----------------

Verse 3x, Chorus

Bridge "Give up..."

e|-----------------|-----------------|-----------------|-----------------|
b|-----------------|-----------------|-----------------|-----------------|
g|-----------------|-----------------|-----------------|-----------------|
d|-----------------|-4-4-4-5-5-5-7-5-|-2---2-2-2-2-2-2-|-5-5-5-5---------|
a|-7---7-7-7-7-7-7-|-2-2-2-3-3-3-5-3-|-0---0-0-0-0-0-0-|-3-3-3-3---4-5-6-|
e|-5---5-5-5-5-5-5-|-----------------|-----------------|-----------2-3-4-|
                                                       Last bar 2nd time:
                                                       |-----------------|
                                                       |-----------------|
                                                       |----------/7b~r--|
                                                       |-----------------|
                                                       |-7-7-7-7-7-------|
                                                       |-5-5-5-5-5-------|

Then play Verse 3x, Chorus, Bridge, Verse 4x, End.


Drum TAB

Intro

   1 + 2 + 3 + 4 +  1 + 2 + 3 + 4 +  
H |----------------|----------------|
S |----------------|----------------|
B |----------------|----------------|
  

Verse

   1 + 2 + 3 + 4 +  1 + 2 + 3 + 4 +  1 + 2 + 3 + 4 +  1 + 2 + 3 + 4 + 
H |x-x-x-x-x-x-x-x-|x-x-x-x-x-x-x-x-|x-x-x-x-x-x-x-x-|x-x-x-x-x-x-x-x-|
S |----o-------o---|----o-------o---|----o-------o---|----o-------o---|
B |o-------o-------|o-------o-----o-|--o-----o-------|o-------o-----o-|
                                      "I'm sittin here tryin..." 
   1 + 2 + 3 + 4 +  1 + 2 + 3 + 4 +  1 + 2 + 3 + 4 +  1 + 2 + 3 + 4 + 
H |x-x-x-x-x-x-x-x-|x-x-x-x-x-x-x-x-|x-x-x-x-x-x-x-x-|x-x-x-x-x-x-x-x-|
S |----o-------o---|----o-------o---|----o-------o---|----o-------o---|
B |--o-----o-------|o-------o-----o-|--o-----o-------|o-------o-----o-|
    1 + 2 + 3 + 4 +  1 + 2 + 3 + 4 +  1 + 2 + 3 + 4 +  1 + 2 + 3 + 4 + 
H |x-x-x-x-x-x-x-x-|x-x-x-x-x-x-x-x-|x-x-x-x-x-x-x-x-|x-x-x-x-x-x-x-x-|
S |----o-------o---|----o-------o---|----o-------o---|----o-------o---|
B |--o-----o-------|o-------o-----o-|--o-----o-------|o-------o-----o-|
                  "And so I Bang my..."
   1 + 2 + 3 + 4 +  1 + 2 + 3 + 4 + 
C |----------------|--------x------|
H |x-x-x-x-x-x-x-x-|x-x-x-x---x-x-x|
S |----o-------o---|----o-------o--|
B |--o-----o-------|o-------o------|


Chorus

"...head"
   1 + 2 + 3 + 4 +  1 + 2 + 3 + 4 +  1 + 2 + 3 + 4 +  1 + 2 + 3 + 4 +
C |x---------------|x-----x-----x---|x---------------|x-x-------------|
H |--x-x-x-x-x-x-x-|----------------|--x-x-x---------|----------------|
S |----o-------o---|o-----o-----o---|----o--odd------|----o---o-------|
B |o-------o-o---o-|o-o-o-o-o-o-o-o-|o-----o-o-o-o-o-|o-oo--oo--oo--o-|
t |----------------|----------------|----------o-oo--|--------o---o---|
T |----------------|----------------|--------------oo|------------o---|
   1 + 2 + 3 + 4 +  1 + 2 + 3 + 4 +  1 + 2 + 3 + 4 +  1 + 2 + 3 + 4 +
C |x---------------|x-----x-----x---|x---------------|----------------|
H |--x-x-x-x-x-x-x-|----------------|-----xx---------|----------------|
S |----o-------o---|o-----o-----o---|----o--oo-------|--------------f-|
B |o-------o-o-----|o-o-o-o-o-o-o-o-|o-----o-o-o-o-o-|o-o-o-o-o-o-o---|
t |----------------|----------------|----------o-----|--------o-------|
T |----------------|----------------|------------o-o-|o-o-o-o-o-o-o---|

Back to Verse, then Chorus (no fill on the last bar)

Bridge

"Give up..."
   1 + 2 + 3 + 4 +  1 + 2 + 3 + 4 +  1 + 2 + 3 + 4 +  1 + 2 + 3 + 4 +
C |x---------------|x-------------x-|x---------------|x---------------|
H |--x-x-x-x-x-x-x-|--x-x-x-x-x-x---|----x-----------|--x-x-x-x-x---x-|
S |----o-------o---|----o-------o---|----o--odd------|----o----o--f---|
B |o-------o-o-----|o-o---o---o---o-|o-----o-o-o-o-o-|o-oo--o---oo--o-|
t |----------------|----------------|----------o-----|----------------|
T |----------------|----------------|-------------oo-|----------------|
   1 + 2 + 3 + 4 +  1 + 2 + 3 + 4 +  1 + 2 + 3 + 4 +  1 + 2 + 3 + 4 +
C |x---------------|------x-------x-|x---------------|----------------|
H |--x-x-x-x-x-x-x-|x-x-x---x-x-x---|--x-x-x-x-x-x-x-|x-x-x-x-x-x-x-x-|
S |----o-------o---|----o-------o---|----o-------o---|----o-------o---|
B |o-------o-o-----|o-o---o---o---o-|o-------o-o-----|--o-------o-----|
t |----------------|----------------|----------------|----------------|
T |----------------|----------------|----------------|----------------|
back to Verse, then Chorus and Bridge then one more Verse

end on this

   1 + 2 + 3 + 4 +  
H |x-x-x-x-x-x-x-x-|
S |----o-------f-o-|
B |o-------o-----o-|
t |--------------o-|