My Small Percent Shows Most

From MelvinsWiki
Jump to: navigation, search

"My Small Percent Shows Most" (Osborne) – 0:58

Originally from Ozma, 1989.

Lyrics

Into the pill I go

Would you save yourself

Still

(Thrown at) your wish it

(Wanna) like a (like a)

Bit of

(Pressure)

(Pouring something) like them

(Am I dope get some of my)

Cigarettes

It's like a, like a

Like a... feeling I can

Hair

Like lemon several sickle like it.

Guitar TAB

My Small Percent Show's Most
Album - Ozma/Gluey Porch Treatments
Tabbed by an18nin18

Standard Tuning – E, A, D, G, B, E

Intro

|--------------------|-----------------------------|-----|----------|
|--------------------|-----------------------------|-----|----------|
|--------------------|-----------------------------|-----|----------|
|--------------------|-----------------------------|-2~~-|-5--------|
|-------3-3-5^-3-----|-5-----3---3-------3---3---3-|-2~~-|-5--------|
|-3-5~~----------5~~-|-3-5-5---5---5-5-5---5---5---|-0~~-|-3-<3><3>-|
PM… PM | Play x 4

Verse
1| 2|
|---------|-------------------|--------------|
|---------|-------------------|--------------|
|---------|-------------------|--------------|
|-2-2-5-5-|-------------------|--------------|
|-0-0-3-3-|---3---3---3-0---0-|-2-2-3-2-/8-6-|
|---------|-3---3---3-----3---|-0-0-1-0-/6-4-|

Chorus

|------------------------------------|----------------------------------|
|------------------------------------|----------------------------------|
|------------------------------------|----------------------------------|
|------------------------------------|----------------------------------|
|---7---7----8-8-7-7-10104-4-5-5-6-6-|-----<7>-----<7>-----<8><8><7><7>-|
|-5---5---6--6-6-5-5-8-8-2-2-3-3-4-4-|-<5>-----<5>-----<6>-<6><6><5><5>-|
Play x 2 PM……………………………………………………… | Play x 2 

|--------------------------|
|--------------------------|
|--------------------------|
|--------------------------|
|-<10<10<4><4><5><5><6><6>-|
|-<8><8><2><2><3><3><4><4>-|

Outro
1| 2| 3| 4| 5|
|------------|-----------|---|-----|-------|---------|
|------------|-----------|---|-----|-------|---------|
|------------|-----------|---|-----|-------|---------|
|-5-5-55-5-5-|-3-6-5-2-5-|-3-|-3-6-|-3-6-5-|-3-6-5-2-|
|-5-5-55-5-5-|-3-6-5-2-5-|-3-|-3-6-|-3-6-5-|-3-6-5-2-|
|-3-3-33-3-3-|-1-4-3-0-3-|-1-|-1-4-|-1-4-3-|-1-4-3-0-|