Suicide In Progress

From MelvinsWiki
Jump to: navigation, search

"Suicide In Progress" - 4:46

Originally released on Nude With Boots, 2008.

Lyrics

There's a little animal, way up in the air
My nose and tongue are roving, but maybe it's not there
There's a little man now, in the middle of the Earth
He gives himself these orders and let it all be burned
There are lots of makeshift wonders, seven in the world
Five of them will not be noticed and three will not be heard

There's a meal there's a window, there's a face that you can't see
You can keep what you've stolen, just give it back to me
I vow to takes my vengeance even if they're dead
Maybe his time is coming, and maybe he's better off

Guitar Tab

Intro
e---------------------------------------------------------------------------------
b---------------------------------------------------------------------------------
g--2--2--2--2-2-2----------------2--2--2--2-2-2-----------------------------------
d--2--2--4--4-2-2----------------2--2--4--4-2-2-----------------------------------
a--0--0--0--0-0-0---3p0--0-------0--0--0--0-0-0---3p0--0---------0----------------
e---------------------------3b-----------------------------3b---------3b----------
e---------------------------------------------------------------------------------
b---------------------------------------------------------------------------------
g--2--2--2--2-2-2-----------------------------------------------------------------
d--2--2--4--4-2-2-----------------------------------------------------------------
a--0--0--0--0-0-0---3p0--0--------0---------0-------------------------------------
e---------------------------3b--------3b--------3b--------------------------------

Riff 1

e---------------------------------------------------------------------------------
b---------------------------------------------------------------------------------
g---------------------------------------------------------------------------------
d---------------------------------------------------------------------------------
a--2-2------2-2----4p2--2-5p2--2-4p2------2-2----4p2--2-5p2--2-4p2----------------
e--0-0--3b--0-0-----------------------3b--0-0------------------------3--0--3--0---
   . .                                                               .  .  .  .
                                                                                  }x5
e---------------------------------------------------------------------------------
b---------------------------------------------------------------------------------
g---------------------------------------------------------------------------------
d---------------------------------------------------------------------------------
a--4p2--2-5p2-2--4-2-----2--4-----------------------------------------------------
e---------------------3-----------------------------------------------------------                                                                                                                                                                                                              
                                                                                                                                

Short Break

e---------------------------------------------------------------------------------
b---------------------------------------------------------------------------------
g--9-9-9-9--9-9-9-9--9-9-9-9--9-9-9-9--9-9-9-9--9-9-9-9--9-9-9-9------------------
d--9-9-9-9--9-9-9-9--9-9-9-9--9-9-9-9--9-9-9-9--9-9-9-9--9-9-9-9------------------
a--7-7-7-7--7-7-7-7--7-7-7-7--7-7-7-7--7-7-7-7--7-7-7-7--7-7-7-7------------------
e---------------------------------------------------------------------------------

Riff 1

e---------------------------------------------------------------------------------
b---------------------------------------------------------------------------------
g---------------------------------------------------------------------------------
d---------------------------------------------------------------------------------
a--2-2------2-2----4p2--2-5p2--2-4p2------2-2----4p2--2-5p2--2-4p2---------------- 
e--0-0--3b--0-0-----------------------3b--0-0------------------------3--0--3--0---
   . .            |repeat twice from here                            .  .  .  .
e---------------------------------------------------------------------------------
b---------------------------------------------------------------------------------
g---------------------------------------------------------------------------------
d---------------------------------------------------------------------------------
a--4p2--2-5p2-2--4-2-----2--4-----------------------------------------------------  x1
e---------------------3-----------------------------------------------------------

Riff 2

e---------------------------------------------------------------------------------
b---------------------------------------------------------------------------------
g---------------------------------------------------------------------------------
d---------------------2-----------------------------------------------------------
a--2--2-2-------------2----7-7-7-7-7-7--------------------------------------------  x3
e--0--0-0---3----5-6--0-----------------6-----3-5-6--5h6p5--3h5p3-----------------
e---------------------------------------------------------------------------------
b---------------------------------------------------------------------------------
g---------------------------------------------------------------------------------
d---------------7---2-------------------------------------------------------------
a---------------7---2-------------------------------------------------------------
e--0--0-0--3----5---0-------------------------------------------------------------

Second Part

e---------------------------------------------------------------------------------
b---------------------------------------------------------------------------------
g--2-2--2--2---2-2---------------2-2--2--2---2-2----------------------------------
d--2-2--4--2---2-2---------------2-2--4--2---2-2----------------------------------
a--0-0--0--0---0-0--3p0-0--------0-0--0--0---0-0--3p0-0-------0-------------------
e--------------------------3b----------------------------3b-------3b--------------
               . .                           . .
e---------------------------------------------------------------------------------
b---------------------------------------------------------------------------------
g--2-2--2--2---2-2----------------------------------------------------------------
d--2-2--4--2---2-2----------------------------------------------------------------
a--0-0--0--0---0-0--3p0-0-------0--------0----------------------------------------
e--------------------------3b-------3b--------3b----------------------------------
               . .

Verse

e---------------------------------------------------------------------------------
b---------------------------------------------------------------------------------
g---------------------------------------------------------------------------------
d---------------------------------------------------------------------------------
a--2--2-2--5---5/7--7-7--8--2---8-8-8-8-8--5---5/7--7-7--2--2-2------------------- x5 
e--0--0-0--3---3/5--5-5--6--0---6-6-6-6-6--3---3/5--5-5--0--0-0---0-0-0-0-3b------

PM

Riff 3

e---------------------------------------------------------------------------------
b---------------------------------------------------------------------------------
g--9-9-9-9-9--9----7-----4/5-5-5-5--5----2-2--4-----------------------------------
d--9-9-9-9-9--9----7-----4/5-5-5-5--5----2-2--4-----------------------------------
a--7-7-7-7-7--7----5--0--2/3-3-3-3--3----0-0--2-----------------------------------
e---------------------------------------------------------------------------------
Verse  x2
Riff 3 x2
End on E


by bcreep