Theme

From MelvinsWiki
Jump to: navigation, search
ClownAlley.jpg

"Theme" (Clown Alley) – 3:19

Originally by Clown Alley, from their Circus of Chaos LP from 1985.

The Melvins version released on the Way of the World/Theme single, on Singles 1-12.

Lyrics

...He watches the sunrise almost every day...


Guitar Tab

Riff 1                  ~~

e--------------------------|
b----6-----6--------6------|
g--5---5/4---4--4/5---5/4--|
d--------------------------| Do it twice
a--------------------------|
d--------------------------|


Riff 2

d-----------------------|
a--2-2---2---2--2-2-~~--|Play this once,then Riff 1 and then Riff 2.
d--2-2---2-5-2--2-2-5---|Then play this:


Riff 3

g--6/7--7--7-7/6--6-6-6-6/7--7-7/6--|
d--6/7--7--7-7/6--6-6-6-6/7--7-7/6--|Play this four times.
a--4/5--5--5-5/4--4-4-4-4/5--5-5/4--|And then this:
d-----------------------------------|



Riff 4

b-----------/6-6--------/9-9----------/11-11---------/13-13--|
g------------------------------------------------------------|
d------------------------------------------------------------|
a--2-5-2-2-------2-5-2-2------2-5-2-2--------2-5-2-2---------|
d--2-5-2-2-------2-5-2-2------2-5-2-2--------2-5-2-2---------|



Play Riff 1 again, then this:


d--2-|
a--2-| Let ring until you get a bunch of feedback
d--2-|