Zodiac

From MelvinsWiki
Jump to: navigation, search

"Zodiac" (Osborne) – 4:14

Originally from Bullhead, 1991.

Brutal Truth covered this on the How-**-Harry Lauders Walking Stick Tree/Zodiac single and Singles 1-12.

Lyrics

Like the dead

We'll solve no dess

It's like a ?? let it

Lost in so

Like a pour-ess

Like a mow low led

Moss walls

Like a sez

A poor song yeah

Lost

In paradise

And rock a Thomas

At home

Walls moan like a ?? man

Like a tee sure one lag

Hoarse man

Like a toe this

Keeps only

Cost

In both solids

Like a warzone

Lost mole

And both san

...miracles...

Cross man goes like a toad

...only...

Lost...

Like...???????????

????????????


...Oh yeah

I forgot to get my pill

Got to go downtown...




(alternate interpretation)

Locked down

So now I notice

So of course I let it

Lost in soul

Like the poets

Like a mole low lead

Moss walls

Like a sense

It all pours down

Lost in paradox

And I'm Adonis at home

Once more like the Duchess of Man

Like a T shown one lap

Boss man

Like I've told this

Keeps only


Caught

In both since

In the wars of love and man

Lost more than both send

And come with miracles and then

Cross man goes like a toad

For peace only

Lost

Like it was alive

I caught a life-like force slam

Hook me with a beautiful name

Like I did so long ago

Boss man, the keys to notice

Crossed that, don't laugh


Cuz I can only figure my time away

I could kill but I wish I could prevent

The way we went

You know by the way you spend it

So bored and so left

You deal by the thought of a bigger one

You save a man


Oh yeah,

I forgot to get my pills

I got to go downtown


Cuz I can wear a coat like some manly man

You remind them how the house can live like

Some bandstand mind

I pronounce: Oh no, it's like the timid face of man that's hiding

Play in teh sandbox

And jump and never pour just sand


Oh yeah,

I forgot to get my pills

I got to go downtown

Guitar TAB

Tabber:  zium
Tuning:  Normal
Date:    26 July 2003
Notes:   I watched the salad of a thousand delights dvd
         and looking at buzzo's hands on the fretboard i
         think this is how he played it (more or less)


G|-------------------------------------------------b8~~|
D|-----------------------------------------------9-----|
A|-7-7-7-7-7-7-7-7-7-7-7-7-7-7-7-7-7-7-7-7-7-7-7-------|
E|-0-0-0-0-0-0-0-0-0-0-0-0-0-0-0-0-0-0-0-0-0-0-0-------|

G|----------------------------------------------------------------|
D|------------------------------------------------8-7-2~~--3-3--3-|
A|-7-7-7-7-7-7-7-7-7-7-7-7-7-7-7-7-7-7-7-7-7-7-7--8-7-2~~--3-3--3-|
E|-0-0-0-0-0-0-0-0-0-0-0-0-0-0-0-0-0-0-0-0-0-0-0--6-5-0~~--1-1--1-|

G|--------------------------------|
D|-2--2-2-2-2-2-2-2-2-2-2-2-----2-|
A|-2--2-2-2-2-2-2-2-2-2-2-2-0h2---|
E|-0--0-0-0-0-0-0-0-0-0-0-0-------|
      x x x x x x x x x x x

G|-------------------------|
D|-2--2-2-2-2-2-2-2-8-8--8-|
A|-2--2-2-2-2-2-2-2-8-8--8-|
E|-0--0-0-0-0-0-0-0-6-6--6-|
      x x x x x x x

G|----------------------------------------------------|
D|------------------------------------------------8-7-|
A|-7-7-7-7-7-7-7-7-7-7-7-7-7-7-7-7-7-7-7-7-7-7-7--8-7-|
E|-0-0-0-0-0-0-0-0-0-0-0-0-0-0-0-0-0-0-0-0-0-0-0--6-5-|

G|---------------------------------------|
D|-2~~2~~--2~~--2~~--2~~--2~~--2~~--2~~--|
A|-2~~2~~--2~~--2~~--2~~--2~~--2~~--2~~--|
E|-0~~0~~--0~~--0~~--0~~--0~~--0~~--0~~--|

G|---------------|
D|-6-3~~6-3~~2-2-|
A|-6-3~~6-3~~2-2-|
E|-4-1~~4-1~~0-0-|
   x    x

G|--------------------------------------------|
D|-6-6-6-6-3-3-3-3-5-5-2-2-5-5-5-5-2--3-2-2-x-|
A|-6-6-6-6-3-3-3-3-5-5-2-2-5-5-5-5-2--3-2-2-x-|
E|--------------------------------------------|

G|---------------------|
D|-6~~-6~~6-6-6-6-6-7~~|
A|-6~~-6~~6-6-6-6-6-7~~|
E|---------------------|

G|--------------|
D|-6-3-6-3--2-2-|
A|-6-3-6-3--2-2-|
E|--------------|
   x   x