Black Bock

From MelvinsWiki
Jump to: navigation, search

"Black Bock" (words/music: Osborne) – 2:43

Originally from Stag, 1996.

Lyrics

I cut the throat of a billy goat and let it bleed

His frozen eyes were far more than I

It's kind of nice to know the things that make me happy

Just realize keep the dog away from me


I found it don't matter when

It's not nice to feel alone inside

This little goat won't mind

All my fears are just vanishing

And the blood will let me find a way

Will open heaven

Down in here all my dreams are filled

Good and bad they seem to be the same

And never lonely

If I just let this power in

It will work it will make me feel O.K.

Be sure forever


Guitar Tab

UPDATED August 2009


/ slide up

\ slide down

^ bend


Intro - play 2x:

E|---------------------------------|---------------------------------|
B|---------------------------------|---------------------------------|
G|---------------------------------|---------------------------------|
D|---------------------------------|---------5---0-------------------|
A|-----0---2-0---3---3-2-0---0-2-0-|---------------------------------|
E|-3-----------3-----------3-------|-3-------------------------------|

..mute all


Verse is alternate G and C power chords (repeat 4x) and then D


Then play this 2x:

E|---------------------------------|---------------------------------|
B|---------------------------------|---------------------------------|
G|---------------------------------|---------------------------------|
D|---------------------------------|---------------------------------|
A|-------------2h3-3-3-3-3-----2-0-|-------------3-------------------|
E|-3-3-3-3-------------------------|-3-3-3-3-------------------------|

..mute all


Solo:

  1   2   3   4   1   2   3   4     1   2   3   4   1   2   3   4
E|---------------------------------|----------------\12-10----------
B|---------------------------------|-7/9-7----/8-10------------------
G|---------------------------------|---------------------------------
D|\7---5---------5---5-------5-7-9-|---------------------------------
A|---------7-6-5-------7-5-7-------|---------------------------------
E|---------------------------------|--------------------------------- 
E|---------------------------------|---------------------------------
B|---------------------------------|---------------------------------
G|---------------------------------|---------------------------------
D|\9---7---5---0-5---5---0-5---0-5^|---------------------------------
A|-----------7---------7-----7-----|---------------------------------
E|---------------------------------|---------------------------------
 
E|---------------------------------|---------------------------------
B|---------------------------------|---------------------------------
G|---------------------------------|---------------------------------
D|-------------5-----5-----5--5-7^-|---------------------------------
A|---5-----5-7-----7-----7--7------|-5-------------------------------
E|/7-----7-------------------------|---------------------------------
E|---------------------------------|---------------------------------|
B|---------------------------------|---------------------------------|
G|---------------------------------|---------------------------------|
D|---------------------------------|---------------------------------|
A|-5-------------------------------|---------------------------------|
E|---7-5-3-5-3-0-3---3-0-3-5-3-0-3^|---------------------------------|


Outro - strum this chord sequence 4 times:

E|---------------------------------|---------------------------------
B|---------------------------------|---------------------------------
G|-7-------------------------------|-10------------------------------
D|-7-------------------------------|-10------------------------------
A|-5-------------------------------|-8-------------------------------
E|---------------------------------|---------------------------------
E|---------------------------------|---------------------------------|
B|---------------------------------|---------------------------------|
G|-9-------------------------------|-8-------------------------------|
D|-9-------------------------------|-8-------------------------------|
A|-7-------------------------------|-6-------------------------------|
E|---------------------------------|---------------------------------|