Difference between revisions of "Buck Owens"

From MelvinsWiki
Jump to: navigation, search
(Guitar Tab)
 
(One intermediate revision by the same user not shown)
Line 55: Line 55:
  
 
== Guitar Tab ==
 
== Guitar Tab ==
==ben.nield@gmail.com==
+
updated 11 Sep 2005
+
-
Riff 1: (play 3X)
+
greenhoney
+
 
 +
 
 +
Riff 1: (play 3X)
 
  b------------------------------------------
 
  b------------------------------------------
 
  g------------------------------------------
 
  g------------------------------------------
Line 64: Line 66:
 
  a-7--6-----7--6-----6--5-----6--5-----4--5-
 
  a-7--6-----7--6-----6--5-----6--5-----4--5-
 
  e-------00-------00-------00-------00------
 
  e-------00-------00-------00-------00------
+
 
 
  b----------------------------------|----------|
 
  b----------------------------------|----------|
 
  g----------------------------------|----------|
 
  g----------------------------------|----------|
Line 70: Line 72:
 
  a-7--6-----7--6-----4--5--6--5-----|-6--5-----|
 
  a-7--6-----7--6-----4--5--6--5-----|-6--5-----|
 
  e-------00-------00-------------00-|-------00-|
 
  e-------00-------00-------------00-|-------00-|
+
 
Replace last bar with this 3rd time:
+
Replace last bar with this 3rd time:
 
  b----------|
 
  b----------|
 
  g-8--7--8--|
 
  g-8--7--8--|
Line 77: Line 79:
 
  a-6--5--6--|
 
  a-6--5--6--|
 
  e----------|
 
  e----------|
+
 
Then: (play 3X)
+
Then: (play 3X)
 
 
   1  +  2  +  3  +  4  +  1  +  2  +  3  +  4  +
 
   1  +  2  +  3  +  4  +  1  +  2  +  3  +  4  +
 
  b-----------------------------------------------------------------
 
  b-----------------------------------------------------------------
Line 86: Line 87:
 
  a-5---5---5-5---5---5---5---5-5-5-5---5-5-5-5---5---5---5---5-5-5-
 
  a-5---5---5-5---5---5---5---5-5-5-5---5-5-5-5---5---5---5---5-5-5-
 
  e-----------------------------------------------------------------
 
  e-----------------------------------------------------------------
+
  Palm Mute all.....
  1  +  2  +  3  +  4  +  1  +  2  +  3  +  4  +
+
 
 
  b-----------------------------------------------------------------
 
  b-----------------------------------------------------------------
 
  g-----------------------------------------------------------------
 
  g-----------------------------------------------------------------
Line 93: Line 94:
 
  a-5-5-5-5-5-5-5-5---5---5---5-5-5-5---5-5-5-5-5-5---5---5---5-5-5-
 
  a-5-5-5-5-5-5-5-5---5---5---5-5-5-5---5-5-5-5-5-5---5---5---5-5-5-
 
  e-----------------------------------------------------------------
 
  e-----------------------------------------------------------------
+
  Palm Mute all.....
Then:
+
 
+
Then:
 
   1  +  2  +  3  +  4  +  1  +  2  +  3  +  4  +
 
   1  +  2  +  3  +  4  +  1  +  2  +  3  +  4  +
 
  b-------------------------------------------------
 
  b-------------------------------------------------
 
  g-9--------9--------9-----9--------9--------9-----
 
  g-9--------9--------9-----9--------9--------9-----
  d-9--------9--------7-----9--------9--------9-----
+
  d-9--------9--------9-----9--------9--------9-----
 
  a-7--------7--------7-----7--------7--------7-----
 
  a-7--------7--------7-----7--------7--------7-----
 
  e-------------------------------------------------
 
  e-------------------------------------------------
+
 
  1  +  2  +  3  +  4  +
 
 
  b------------------------|
 
  b------------------------|
 
  g-9--------9--------9----|
 
  g-9--------9--------9----|
Line 109: Line 109:
 
  a-7--------7--------7----|
 
  a-7--------7--------7----|
 
  e------------------------|
 
  e------------------------|
+
 
Verse 2: (X3)
+
Verse Riff: (X3)
   
+
  b---------------------------------|---------------------------------|
  a------------------------------|------------------------------
+
g---------------------------------|---------------------------------|
  e-0--1-1-1-1-1-1--1-0--0-0-0-0-|-0-h1-1-1-1-1-1--1-0--0-0-0-0-
+
  d---------------------------------|---------------------------------|  
+
a-2---3-3-3-3-3-3---3-2---2-2-2-2-|-2h3-3-3-3-3-3-3---3-2---2-2-2-2-|
  g--------------------------------------9--|
+
  e-0---1-1-1-1-1-1---1-0---0-0-0-0-|-0h1-1-1-1-1-1-1---1-0---0-0-0-0-|
  d--------------------------------------9--|
+
      x x x x x x        x x x x      x x x x x x        x x x x
  a--------------------------------------7--|
+
 
  e-0-h1-1-1-1-1-1--1-0--0-0-0-0-0/7-x-x----|
+
  b---------------------------------|----------------|  
+
  g---------------------------------|---------9------|  
Fill:
+
  d---------------------------------|---------9------|
+
a-2h3-3-3-3-3-3-3---3-2---2-2-2-2-|-2---x-x-7------|  
 +
  e-0h1-1-1-1-1-1-1---1-0---0-0-0-0-|-0/7-x-x--------|  
 +
      x x x x x x        x x x x
 +
 
 +
Fill 1:
 
  b-------------------------------------|
 
  b-------------------------------------|
 
  g-------------------------------------|
 
  g-------------------------------------|
  d-7--4-----3--------------------------|
+
  d-7-----------------------------------|
  a-5--3-----1--------------------------|
+
  a-5--9-----8--------------------------|
  e-------------------------6-3---6-3---|
+
  e----7-----6--------------6-3---6-3---|
+
 
Riff 3: (X3)
+
 
+
Riff 3: (X3)
 
  b---------------------------------------------|
 
  b---------------------------------------------|
 
  g---------------------------------------------|
 
  g---------------------------------------------|
Line 135: Line 139:
 
  a-2--------------------------------5--7--8----|
 
  a-2--------------------------------5--7--8----|
 
  e-0--------------------------------3--5--6----|
 
  e-0--------------------------------3--5--6----|
+
 
Then:
+
Then:
 
 
  b---------------------------------------------|
 
  b---------------------------------------------|
 
  g---------------------------------------------|
 
  g---------------------------------------------|
Line 143: Line 146:
 
  a-2-----------------------------5-----7-----8-|
 
  a-2-----------------------------5-----7-----8-|
 
  e-0-----------------------------3-----5-----6-|
 
  e-0-----------------------------3-----5-----6-|
+
 
Then: (X2)
+
Then: (X2)
 
 
   1  +  2  +  3  +  4  +  1  +  2  +  3  +  4  +
 
   1  +  2  +  3  +  4  +  1  +  2  +  3  +  4  +
 
  b-------------------------------------------------
 
  b-------------------------------------------------
Line 152: Line 154:
 
  a-7--------7--------7-----7--------7--------7-----
 
  a-7--------7--------7-----7--------7--------7-----
 
  e-0--------0--------0-----0--------0--------0-----
 
  e-0--------0--------0-----0--------0--------0-----
+
 
Then:
+
Then:
 
 
  b----------------------------------------------|
 
  b----------------------------------------------|
 
  g-7-----------------------6--------------------|
 
  g-7-----------------------6--------------------|
Line 160: Line 161:
 
  a-5-----------------------4-----------5--------|
 
  a-5-----------------------4-----------5--------|
 
  e-------------------------------------3--------|
 
  e-------------------------------------3--------|
+
 
Then back to Verse Riff (X3)
+
Back to Verse Riff (X3) Followed by Fill 1
+
 
+
Then:
Fill:
 
  1  +  2  +  3  +  4  +  1 +  2  +
 
b--------------------------------------|
 
g--------------------------------------|
 
d-7--4-----3---------------------------|
 
a-5--3-----1---------------------------|
 
e-------------------------6-3---6-3----|
 
 
  1  +  2  +  3  +  4  +  1  +  2  +  3  +  4  +
 
 
  b------------------------------------------------|
 
  b------------------------------------------------|
 
  g------------------------------------------------|
 
  g------------------------------------------------|
Line 178: Line 170:
 
  a-2----------------------------------------------|
 
  a-2----------------------------------------------|
 
  e-0----------------------------------------------|
 
  e-0----------------------------------------------|
+
 
Quiet bit: (3X)
+
 
 +
Quiet part: (3X)
 
   1  +  2  +  3  +  4  +  1  +  2  +  3  +  4  +
 
   1  +  2  +  3  +  4  +  1  +  2  +  3  +  4  +
 
  b-------------------------------------------------
 
  b-------------------------------------------------
Line 186: Line 179:
 
  a-7-----------------7--------------7--------7-----
 
  a-7-----------------7--------------7--------7-----
 
  e----------------------------------------------7--
 
  e----------------------------------------------7--
+
 
  1  +  2  +  3  +  4  +  1  +  2  +  3  +  4  +
 
 
  b-------------------------------------------------|
 
  b-------------------------------------------------|
 
  g-------------------------------------------------|
 
  g-------------------------------------------------|
Line 193: Line 185:
 
  a-5--7-----8-----5--8--7--------------------------|
 
  a-5--7-----8-----5--8--7--------------------------|
 
  e-------------------------------0-----------------|
 
  e-------------------------------0-----------------|
+
 
Then:
+
Then:
 
   1  +  2  +  3  +  4  +  1  +  2  +  3  +  4  +
 
   1  +  2  +  3  +  4  +  1  +  2  +  3  +  4  +
 
  b-------------------------------------------------
 
  b-------------------------------------------------
Line 201: Line 193:
 
  a-5--------5--------5--------5--------5-----5-----
 
  a-5--------5--------5--------5--------5-----5-----
 
  e-------------------------------------------------
 
  e-------------------------------------------------
+
 
 
  b-------------------------------------------------
 
  b-------------------------------------------------
 
  g-9--------9--------9--------9--------9-----9-----
 
  g-9--------9--------9--------9--------9-----9-----
Line 207: Line 199:
 
  a-7--------7--------7--------7--------7-----7-----
 
  a-7--------7--------7--------7--------7-----7-----
 
  e-------------------------------------------------
 
  e-------------------------------------------------
+
 
 
 
  b-------------------------------------------------|
 
  b-------------------------------------------------|
 
  g-7--------7--------7-----6-----------------------|
 
  g-7--------7--------7-----6-----------------------|
Line 214: Line 205:
 
  a-5--------5--------5-----4-----------5-----------|
 
  a-5--------5--------5-----4-----------5-----------|
 
  e-------------------------------------3-----------|
 
  e-------------------------------------3-----------|
 +
 
   
 
   
Outro:
+
Outro:
 
 
   1  +  2  +  3  +  4  +  1  +  2  +  3  +  4  +
 
   1  +  2  +  3  +  4  +  1  +  2  +  3  +  4  +
 +
b-------------------------------------------------|
 +
g-------------------------------------------------|
 +
d-------------------------------------2-----------|
 
  a-------------------------------------2-----------|
 
  a-------------------------------------2-----------|
  e-0-0-0-0-0-0-0-0-0-0-0-0-0-0-0-0-0-0-0-----------|
+
  e-0-0-0-0-0-0-0-0-0-0-0-0-0-0-0-0-0-0-0-----------|  
   
+
 
 +
  b-------------------------------------------------|
 +
g-------------------------------------------------|
 +
d-------------------------------------------------|
 
  a-------------------------------------------------|
 
  a-------------------------------------------------|
 
  e-0-0-0-0-0-0-0-0-0-0-0-0-0-0-0-0-0-0-0-0-0-0-0-0-|
 
  e-0-0-0-0-0-0-0-0-0-0-0-0-0-0-0-0-0-0-0-0-0-0-0-0-|
   
+
 
 +
  b-------------------------------------------------|
 +
g-------------------------------------------------|
 +
d-------------------------------------2-----------|
 
  a-------------------------------------2-----------|
 
  a-------------------------------------2-----------|
 
  e-0-0-0-0-0-0-0-0-0-0-0-0-0-0-0-0-0-0-0-----------|
 
  e-0-0-0-0-0-0-0-0-0-0-0-0-0-0-0-0-0-0-0-----------|
 
Let last chord ring for a while.
 
Fin.
 
  
[[Category: Lyrics]]
+
Let last chord ring for a while.
 
[[Category: Tablature]]
 
[[Category: Tablature]]

Latest revision as of 22:38, 24 April 2009

"Buck Owens" (words/music: Osborne) – 3:11

Originally from Stag, 1996.

Lyrics

See the faulty now

See the dawn - see clear

Five six it's gonna be narrow

By written law

For right of hollow form

By thy all night

Figure five fourteen motorized

She wants the price

Much play in wise paradise

Each time you raise the wire


On fire for me

My plane is happily

Gotta show gotta leave

Which indeed I'd like to


He's afforded final ten

Every damn one been done

Pick the part of me to fun around

Diggie forty Bodie innie

Master come un by gun

Last choice last chance chance

Peace time for the stonified

I can't stand the high design

Give me one of those whys to write


Guitar Tab

updated 11 Sep 2005 - greenhoney


Riff 1: (play 3X)

b------------------------------------------
g------------------------------------------
d-9--8-----9--8-----8--7-----8--7-----6--7-
a-7--6-----7--6-----6--5-----6--5-----4--5-
e-------00-------00-------00-------00------
b----------------------------------|----------|
g----------------------------------|----------|
d-9--8-----9--8-----6--7--8--7-----|-8--7-----|
a-7--6-----7--6-----4--5--6--5-----|-6--5-----|
e-------00-------00-------------00-|-------00-|

Replace last bar with this 3rd time:

b----------|
g-8--7--8--|
d-6--5--8--|
a-6--5--6--|
e----------|

Then: (play 3X)

  1   +   2   +   3   +   4   +   1   +   2   +   3   +   4   +
b-----------------------------------------------------------------
g-----------------------------------------------------------------
d-----------------------------------------------------------------
a-5---5---5-5---5---5---5---5-5-5-5---5-5-5-5---5---5---5---5-5-5-
e-----------------------------------------------------------------
  Palm Mute all.....
b-----------------------------------------------------------------
g-----------------------------------------------------------------
d-----------------------------------------------------------------
a-5-5-5-5-5-5-5-5---5---5---5-5-5-5---5-5-5-5-5-5---5---5---5-5-5-
e-----------------------------------------------------------------
  Palm Mute all.....

Then:

  1  +  2  +  3  +  4  +  1  +  2  +  3  +  4  +
b-------------------------------------------------
g-9--------9--------9-----9--------9--------9-----
d-9--------9--------9-----9--------9--------9-----
a-7--------7--------7-----7--------7--------7-----
e-------------------------------------------------
b------------------------|
g-9--------9--------9----|
d-9--------9--------9----|
a-7--------7--------7----|
e------------------------|

Verse Riff: (X3)

b---------------------------------|---------------------------------| 
g---------------------------------|---------------------------------| 
d---------------------------------|---------------------------------| 
a-2---3-3-3-3-3-3---3-2---2-2-2-2-|-2h3-3-3-3-3-3-3---3-2---2-2-2-2-| 
e-0---1-1-1-1-1-1---1-0---0-0-0-0-|-0h1-1-1-1-1-1-1---1-0---0-0-0-0-| 
      x x x x x x         x x x x       x x x x x x         x x x x 
b---------------------------------|----------------| 
g---------------------------------|---------9------| 
d---------------------------------|---------9------| 
a-2h3-3-3-3-3-3-3---3-2---2-2-2-2-|-2---x-x-7------| 
e-0h1-1-1-1-1-1-1---1-0---0-0-0-0-|-0/7-x-x--------| 
      x x x x x x         x x x x 

Fill 1:

b-------------------------------------|
g-------------------------------------|
d-7-----------------------------------|
a-5--9-----8--------------------------|
e----7-----6--------------6-3---6-3---|


Riff 3: (X3)

b---------------------------------------------|
g---------------------------------------------|
d-2-------------------------------------------|
a-2--------------------------------5--7--8----|
e-0--------------------------------3--5--6----|

Then:

b---------------------------------------------|
g---------------------------------------------|
d-2-------------------------------------------|
a-2-----------------------------5-----7-----8-|
e-0-----------------------------3-----5-----6-|

Then: (X2)

  1  +  2  +  3  +  4  +  1  +  2  +  3  +  4  +
b-------------------------------------------------
g-------------------------------------------------
d-------------------------------------------------
a-7--------7--------7-----7--------7--------7-----
e-0--------0--------0-----0--------0--------0-----

Then:

b----------------------------------------------|
g-7-----------------------6--------------------|
d-7-----------------------6-----------5--------|
a-5-----------------------4-----------5--------|
e-------------------------------------3--------|

Back to Verse Riff (X3) Followed by Fill 1

Then:

b------------------------------------------------|
g------------------------------------------------|
d-2----------------------------------------------|
a-2----------------------------------------------|
e-0----------------------------------------------|


Quiet part: (3X)

  1  +  2  +  3  +  4  +  1  +  2  +  3  +  4  +
b-------------------------------------------------
g-------------------------------------------------
d----6-----7-----6-----------7--6-----7--6--------
a-7-----------------7--------------7--------7-----
e----------------------------------------------7--
b-------------------------------------------------|
g-------------------------------------------------|
d-------------------------------------------------|
a-5--7-----8-----5--8--7--------------------------|
e-------------------------------0-----------------|

Then:

  1  +  2  +  3  +  4  +  1  +  2  +  3  +  4  +
b-------------------------------------------------
g-7--------7--------7--------7--------7-----7-----
d-7--------7--------7--------7--------7-----7-----
a-5--------5--------5--------5--------5-----5-----
e-------------------------------------------------
b-------------------------------------------------
g-9--------9--------9--------9--------9-----9-----
d-9--------9--------7--------9--------9-----9-----
a-7--------7--------7--------7--------7-----7-----
e-------------------------------------------------
b-------------------------------------------------|
g-7--------7--------7-----6-----------------------|
d-7--------7--------7-----6-----------5-----------|
a-5--------5--------5-----4-----------5-----------|
e-------------------------------------3-----------|


Outro:

  1  +  2  +  3  +  4  +  1  +  2  +  3  +  4  +
b-------------------------------------------------|
g-------------------------------------------------|
d-------------------------------------2-----------|
a-------------------------------------2-----------|
e-0-0-0-0-0-0-0-0-0-0-0-0-0-0-0-0-0-0-0-----------| 
b-------------------------------------------------|
g-------------------------------------------------|
d-------------------------------------------------|
a-------------------------------------------------|
e-0-0-0-0-0-0-0-0-0-0-0-0-0-0-0-0-0-0-0-0-0-0-0-0-|
b-------------------------------------------------|
g-------------------------------------------------|
d-------------------------------------2-----------|
a-------------------------------------2-----------|
e-0-0-0-0-0-0-0-0-0-0-0-0-0-0-0-0-0-0-0-----------|

Let last chord ring for a while.