Copache

From MelvinsWiki
Revision as of 15:35, 19 December 2009 by Turnacus (talk | contribs)
(diff) ← Older revision | Latest revision (diff) | Newer revision → (diff)
Jump to: navigation, search

"Copache" (Melvins) – 2:07

Originally released on Houdini, 1993.

b = bend p = pull off

Lyrics

You can feel like a hole in the groaner

For rolly grow lil' Crover

I go like a piece of Minola

Tramp go like terminal wow.

Guitar Tab

   Bass Intro:
  G|----------------|
  D|----------------|
  A|----------------|
  E|2-2-2-3b-p0-----|x9
  
   Guitar Riff 1:
  E|----------------|
  B|----------------|
  G|----------------|
  D|----------------|
  A|4---0-2-3-2-0---|
  E|--2-----------2-|x8
   Verse:
  E|----------------|----------------|----------------|----------------|
  B|----------------|----------------|----------------|----------------|
  G|----------------|----------------|----------------|----------------|
  D|4-----4-----4---|4-----4-----4---|4-----4-----4---|4-----4-----4---|
  A|4-----4-----4---|4-----4-----4---|4-----4-----4---|4-----4-----4---|
  E|2-----2-----2---|2-----2-----2---|2-----2-----2---|2-----2-----2---| x2
  Then play riff 1 again 8x
   Solo
  E|----------------|----------------|----------------|2-1-------------|
  B|----------------|-----------3----|2-----------2---|----3-2-----2---|
  G|----------------|----------------|----------------|----------------|
  D|------2---2-4---|5---5-4---4-----|----------------|----------------|
  A|4---4-----------|----------------|----------------|----------------|
  E|----------------|----------------|----------------|----------------|x3

  E|----------------|----------------|----------------|----------------|
  B|------0---------|----------------|------0---------|----------------|
  G|0---------------|----------------|0---------------|----------------|
  D|------------2---|------------2---|------------2---|4---------------|
  A|----------------|----------------|----------------|----------------|
  E|----------------|----------------|----------------|----------------|x2

  E|----------------|
  B|----------------|
  G|----------------|
  D|5--xxx4---4-4-4-|
  A|----------------|
  E|----------------|x8

  E|----------------|----------------|----------------|----------------|
  B|----------------|----------------|----------------|----------------|
  G|----------------|----------------|----------------|----------------|
  D|4-----4---5-4-5-|4-----4---5-4-5-|4-----4---5-4-5-|4-----4---5-4-5-|
  A|----------------|----------------|----------------|----------------|
  E|----------------|----------------|----------------|----------------|
 
  E|----------------|----------------|----------------|----------------|
  B|----------------|----------------|----------------|----------------|
  G|----------------|----------------|----------------|----------------|
  D|4-----4---5-4-5-|4-----4---5-4-5-|4-----4---5-4-5-|4-----4---5-4-5-|
  A|----------------|----------------|----------------|----------------|
  E|----------------|----------------|----------------|----------------|

   Outro:
  E|----------------|----------------|----------------|----------------|
  B|----------------|----------------|----------------|----------------|
  G|------------5---|------------5---|------------5---|------------5---|
  D|4---4-5-----5---|4-4-4-5-----5---|4---4-5-----5---|4-4-4-5-----5---|
  A|4---4-5-----3---|4-4-4-5-----3---|4---4-5-----3---|4-4-4-5-----3---|
  E|2---2-3---------|2-2-2-3---------|2---2-3---------|2-2-2-3---------|
  
  E|----------------|----------------|----------------|----------------|----|
  B|----------------|----------------|----------------|----------------|----|
  G|------------5---|------------5---|------------5---|------------5---|----|
  D|4-4-4-5-----5---|4-4-4-5-----5---|4---4-5-----5---|4---4-5-----5---|4---|
  A|4-4-4-5-----3---|4-4-4-5-----3---|4---4-5-----3---|4---4-5-----3---|4---|
  E|2-2-2-3---------|2-2-2-3---------|2---2-3---------|2---2-3---------|2---|
   
   fin.