Difference between revisions of "Cottonmouth"

From MelvinsWiki
Jump to: navigation, search
m (Deleted spam)
(Lyrics)
 
(2 intermediate revisions by 2 users not shown)
Line 1: Line 1:
 +
"Cottonmouth" (words/music: Crover) – 1:56
  
 +
Originally from '''''[[Stag (album)|Stag]]''''', 1996.
 +
 +
==Lyrics==
 +
Mean little stealer you
 +
 +
Got your head bowed down
 +
 +
I got a mouth full of cotton
 +
 +
Duct taped down
 +
 +
I've been drinking too much Lysol
 +
 +
and my head's bowed too
 +
[[Category: Lyrics]]
 +
 +
 +
==Guitar Tab==
 +
 +
Tuning: Drop-D
 +
 +
 +
Play this sequence 2x
 +
 +
E)------------  ---------- | -------------- |
 +
B}-/10--------  \8----8--- | -5------------ |
 +
G)-/12--------  \10---10-- | -7------------ |
 +
D)-/12--------  \10---10-- | -7------------ |
 +
A)-/10--------  \8----8--- | -5------------ |
 +
D)------------  ---------- | -------------- |
 +
 +
E)------------------------ | -------------- |
 +
B}------------------------ | -------------- |
 +
G)-2---------------------- | -7------------ |
 +
D)-2------5---5---3---3--- | -7------------ |
 +
A)-0------5---5---3---3--- | -0------------ |
 +
D)--------5---5---3---3--- | -------------- |
 +
 +
 +
Ending:
 +
 +
E)--------------------
 +
B}--------------------
 +
G)-7---------7---7----
 +
D)-7---------7---7---- etc
 +
A)-0---0---0-----0----
 +
D)--------------------
 +
 +
 +
Tab by greenhoney
 +
[[Category: Tablature]]

Latest revision as of 22:18, 24 April 2009

"Cottonmouth" (words/music: Crover) – 1:56

Originally from Stag, 1996.

Lyrics

Mean little stealer you

Got your head bowed down

I got a mouth full of cotton

Duct taped down

I've been drinking too much Lysol

and my head's bowed too


Guitar Tab

Tuning: Drop-D


Play this sequence 2x

E)------------  ---------- | -------------- |
B}-/10--------  \8----8--- | -5------------ |
G)-/12--------  \10---10-- | -7------------ |
D)-/12--------  \10---10-- | -7------------ |
A)-/10--------  \8----8--- | -5------------ |
D)------------  ---------- | -------------- |
E)------------------------ | -------------- |
B}------------------------ | -------------- |
G)-2---------------------- | -7------------ |
D)-2------5---5---3---3--- | -7------------ |
A)-0------5---5---3---3--- | -0------------ |
D)--------5---5---3---3--- | -------------- |


Ending:

E)-------------------- 
B}--------------------
G)-7---------7---7----
D)-7---------7---7---- etc
A)-0---0---0-----0----
D)--------------------


Tab by greenhoney