Cow

From MelvinsWiki
Revision as of 08:03, 28 August 2009 by Green Honey (Talk | contribs)

(diff) ← Older revision | Latest revision (diff) | Newer revision → (diff)
Jump to: navigation, search

"Cow" (Osborne) – 4:31

Originally from Bullhead, 1991.

Lyrics

Cuz I can level, I can miss a low loaded

And I know it like a hunter san bow yed

Cuz I can low like a hundred well dole an'

'Til my below is like a heart-kissin' man.

Guitar TAB

Riff 1 - play 2x

e|--------------------------------
b|--------------------------------
g|--------------------------------
d|-----------------2------2-------
a|-2-0-------------2------2-------
e|-----2-0-2-0-3^--0------0---0-0-
e|--------------------------------
b|--------------------------------
g|--------------------------------
d|-----------------2------2-------
a|-------2---------2------2-------
e|-3-3-5---5-3-5-5-0------0---0-0-

Riff 2 - play 4x

e|------------------------------------------------------
b|------------------------------------------------------
g|-5----------------------------------------------------
d|-5-----------------------------------2----------------
a|-3-----------------------------------2----------------
e|-------------------------------------0----------------

Riff 3 - play 4x

e|---------------------------------------------------------------
b|---------------------------------------------------------------
g|---------------------------------------------------------------
d|---------------------------------------------------------------
a|-2---2-------2-------2-------3-------2---2-------3-3---3-x-3---
e|-0---0---0-0-0---0-0-0---0-0-1---0-0-0---0---0-0-1-1-0-1-x-1---
           . .     . .     . .     . .         . .     .
e|---------------------------------------------------------------
b|---------------------------------------------------------------
g|---------------------------------------------------------------
d|-----------------------------------------------------------3---
a|-2---2-------2-------2-------3-------2---2-------3-3---3-x-1---
e|-0---0---0-0-0---0-0-0---0-0-1---0-0-0---0---0-0-1-1-0-1-x-----
           . .     . .     . .     . .         . .     .