Difference between revisions of "Dies Iraea"

From MelvinsWiki
Jump to: navigation, search
(Guitar Tab)
(Guitar Tab)
 
(7 intermediate revisions by the same user not shown)
Line 6: Line 6:
  
  
  INTRO/OUTRO USE SOME HEAVY DISTORTION
+
  Standard Tuning
  
THE INTRO AND OUTRO ARE IN 'A' TUNING, THE REST IS STANDARD TUNING
 
  
  E----------------------------------------------
+
  1st part:
B----------------------------------------------
 
G----------------------------------------------
 
D----------------------------------------------
 
A----------------------------------------------
 
E---5-------1--5-------1--5------1--5-----1---5
 
 
0:44-1:05
 
E------------------------------------------------------------------------------------------
 
B------------------------------------------------------------------------------------2--2--
 
G------------------------------------------------------------------------------------2--2--
 
D------------------------------------------------------------------------------------2--2--
 
A---3-2-3-0-2--------------------------3-3-5--3-2-0------------2-3-2-2-0--0----------------
 
E----------------------3-5-5-5-----------------------------3-------------------------------
 
  
  1:08-1:21/1:50-2:03/2:32-2:46
+
  E---------------------------------|----------------------------------|---------------------------
E---------------------------------------------
+
  B---------------------------------|----------------------------------|---------------------------
  B------------------------------------------2--
+
  G---------------------------------|----------------------------------|---------------2-2R--------
  G------------------------------------------2--
+
  D---------------------------------|----------------------------------|---------------2-2R--------
  D------------------------------------------2--
+
  A-3---2---3-------2---------------|-----3---3---5---3---2------------|-2---3---2-----0-0R--------
  A---7-10-10-9-5-7-7-5-3-5-7-7-0---------------
+
  E-------------5-------3---5---5---|-5-----------------------5---3b---|---------------------------
  E---------------------------------------------
 
  
  1:26-1:47/2:09-2:30
+
  2nd part [Palm-Muted]:
E----------------------------------------------------------------------
 
B----------------------------------------------------------------------
 
G----------------------------------------------------------------------
 
D---10--9--10--7--9--5--7--7--10--10--12--10--9--7--5--9--10--9--7--7--
 
A---10--9--10--7--9--5--7--7--10--10--12--10--9--7--5--9--10--9--7--7--
 
E---8---7--8---5--7--3--5--5--8---8---10--8---7--5--3--7---8--7--5--5--
 
  
 +
E---------------------------------|----------------------------------|
 +
B---------------------------------|----------------------------------|
 +
G---------------------------------|----------------------------------|
 +
G---------------------------------|-----------------2R---------------|
 +
D-2---5---5---4-------2---2-------|---------2---2---2R---------------|
 +
A-----------------5-----------5---|-3---5-----------0R---------------|
 +
E---------------------------------|----------------------------------|
  
BY CHRIS P. BACON
+
Then play a powerchord version of the 1st part, minus the ninth note of the riff.
  
 
[[Category: Tablature]]
 
[[Category: Tablature]]

Latest revision as of 14:03, 30 June 2009

"Dies Iraea" - 4:33

Originally released on Nude With Boots, 2008.

Guitar Tab

Standard Tuning


1st part:
E---------------------------------|----------------------------------|---------------------------
B---------------------------------|----------------------------------|---------------------------
G---------------------------------|----------------------------------|---------------2-2R--------
D---------------------------------|----------------------------------|---------------2-2R--------
A-3---2---3-------2---------------|-----3---3---5---3---2------------|-2---3---2-----0-0R--------
E-------------5-------3---5---5---|-5-----------------------5---3b---|---------------------------
2nd part [Palm-Muted]:
E---------------------------------|----------------------------------|
B---------------------------------|----------------------------------|
G---------------------------------|----------------------------------|
G---------------------------------|-----------------2R---------------|
D-2---5---5---4-------2---2-------|---------2---2---2R---------------|
A-----------------5-----------5---|-3---5-----------0R---------------|
E---------------------------------|----------------------------------|

Then play a powerchord version of the 1st part, minus the ninth note of the riff.