Dies Iraea

From MelvinsWiki
Revision as of 00:50, 25 April 2009 by Green Honey (talk | contribs) (Guitar Tab)
Jump to: navigation, search

"Dies Iraea" - 4:33

Originally released on Nude With Boots, 2008.

Guitar Tab

INTRO/OUTRO USE SOME HEAVY DISTORTION
THE INTRO AND OUTRO ARE IN 'A' TUNING, THE REST IS STANDARD TUNING
E----------------------------------------------
B----------------------------------------------
G----------------------------------------------
D----------------------------------------------
A----------------------------------------------
E---5-------1--5-------1--5------1--5-----1---5

0:44-1:05
E------------------------------------------------------------------------------------------
B------------------------------------------------------------------------------------2--2--
G------------------------------------------------------------------------------------2--2--
D------------------------------------------------------------------------------------2--2--
A---3-2-3-0-2--------------------------3-3-5--3-2-0------------2-3-2-2-0--0----------------
E----------------------3-5-5-5-----------------------------3-------------------------------
1:08-1:21/1:50-2:03/2:32-2:46
E---------------------------------------------
B------------------------------------------2--
G------------------------------------------2--
D------------------------------------------2--
A---7-10-10-9-5-7-7-5-3-5-7-7-0---------------
E---------------------------------------------
1:26-1:47/2:09-2:30
E----------------------------------------------------------------------
B----------------------------------------------------------------------
G----------------------------------------------------------------------
D---10--9--10--7--9--5--7--7--10--10--12--10--9--7--5--9--10--9--7--7--
A---10--9--10--7--9--5--7--7--10--10--12--10--9--7--5--9--10--9--7--7--
E---8---7--8---5--7--3--5--5--8---8---10--8---7--5--3--7---8--7--5--5--


BY CHRIS P. BACON