Electric Flower

From MelvinsWiki
Revision as of 04:47, 9 May 2010 by Samo (talk | contribs) (New page: "Electric Flower" – 3:27 Originally released on '''''The Bride Screamed Murder''''', 2010. ==Lyrics== Catagory: Lyrics ==Guitar Tab== Song: Electric Flower Artist: Melvins ...)
(diff) ← Older revision | Latest revision (diff) | Newer revision → (diff)
Jump to: navigation, search

"Electric Flower" – 3:27

Originally released on The Bride Screamed Murder, 2010.

Lyrics

Catagory: Lyrics

Guitar Tab

Song: Electric Flower
Artist: Melvins
Tabbed By: Jamie
Email: xxsamoxx@gmail.com
Intro - PM'd
e-------------------------------------------------------------------------------------|
B-------------------------------------------------------------------------------------|
G-------------------------------------------------------------------------------------|
D---------------0-2-3-2-0---0---------------------------------------------------------|
A--------0-2-3------------3---3-2-0---0---0-2-0---0-3-2-0---0---2---------------------|
E--0-2-3----------------------------3---3-------3---------3---3---3-------------------|
Riff 1
e-------------------------------------------------------------------------------------|
B-------------------------------------------------------------------------------------|
G-------------------------------------------------------------------------------------|
D---------------0-2-0---0-------------------------------------------------------------|
A--------0-2-3--------3---3-2-0---0-3-2-0---0-------0--------0---2--------------------|
E--0-2-3------------------------3---------3---3-2-3---3-2-3----3---3------------------|
Riff 2
e-------------------------------------------------------------------------------------|
B-------------------------------------------------------------------------------------|
G-------------------------------------------------------------------------------------|
D---------------0-2-3-2-0---0---------------------------------------------------------|
A--------0-2-3------------3---3-2-0---0---0-2-0---0-3-2-0---0---2---------------------|
E--0-2-3----------------------------3---3-------3---------3---3---3-------------------|
Riff 3
e-------------------------------------------------------------------------------------|
B-------------------------------------------------------------------------------------|
G-------------------------------------------------------------------------------------|
D--2-2-2-2--2-2-2-2---------------0-2-0---0-------------------------------------------|
A--2-2-2-2--2-2-2-2--------0-2-3--------3---3-2-0-------------------------------------|
E--0-0-0-0--0-0-0-0--0-2-3------------------------------------------------------------|
Riff 4
e-------------------------------------------------------------------------------------|
B-------------------------------------------------------------------------------------|
G-------------------------------------------------------------------------------------|
D--2-2-2-2--2-2-2-2-------------------------------------------------------------------|
A--2-2-2-2--2-2-2-2--------0-2-0---0-3-2-0---0---2------------------------------------|
E--0-0-0-0--0-0-0-0--0-2-3-------3---------3---3---3----------------------------------|

Riff 5
e-------------------------------------------------------------------------------------|
B-------------------------------------------------------------------------------------|
G--------------------5-5-5-5-5-5-----------2-2-2-2-2-2-----------5-----2-----2--2-----|
D--2-2-2-2--2-2-2-2--5-5-5-5-5-5--2-2-2-2--2-2-2-2-2-2--2-2-2-2--5--2--2--2--2--2-----|
A--2-2-2-2--2-2-2-2--3-3-3-3-3-3--2-2-2-2--0-0-0-0-0-0--2-2-2-2--3--2--0--2--0--0-----|
E--0-0-0-0--0-0-0-0---------------0-0-0-0---------------0-0-0-0-----0-----0-----------|
Riff 6
e-------------------------------------------------------------------------------------|
B-------------------------------------------------------------------------------------|
G--5-5-5-5-5-5-----------2-2-2-2-2-2-----------5-----2-----2--2-----------------------|
D--5-5-5-5-5-5--2-2-2-2--2-2-2-2-2-2--2-2-2-2--5--2--2--2--2--2-----------------------|
A--3-3-3-3-3-3--2-2-2-2--0-0-0-0-0-0--2-2-2-2--3--2--0--2--0--0-----------------------|
E---------------0-0-0-0---------------0-0-0-0-----0-----0-----------------------------|
Riff 1
Riff 2
Riff 5
Riff 6
Riff 7
e-------------------------------------------------------------------------------------|
B-------------------------------------------------------------------------------------|
G--5-5-5-----------2-2-2--------------------------------------------------------------|
D--5-5-5---2-2-2---2-2-2--------------------------------------------------------------|
A--3-3-3---2-2-2---0-0-0--------------------------------------------------------------|
E----------0-0-0----------------------------------------------------------------------|
Riff 8 (x2)
 /---------------------------2x--------------------------------\
e ---------------------------------------------------------------|---------------------|
B---------------------------------------------------------------|---------------------|
G---------------------------------------------------------------|---------------------|
D---------------------------------------------------------------|--2-----0------------|
A---------------------------------------------------------------|----0-2--------------|
E--0-0-0-0-0-0-0-1-0-0-0-0-0-0-0-3-0-0-0-0-0-0-1-0-0-0-0-0-0-0--|---------------------|
    X X X X X X     X X X X X X     X X   X X     X X X X X X
Riff 9
e-------------------------------------------------------------------------------------|
B-------------------------------------------------------------------------------------|
G--2-2-2-2-2-2--3-3-3-3-3-3-----------------------------------------------------------|
D--2-2-2-2-2-2--3-3-3-3-3-3---5-5-5-5-5-5---------------------------------------------|
A--0-0-0-0-0-0--1-1-1-1-1-1---5-5-5-5-5-5---------------------------------------------|
E-----------------------------3-3-3-3-3-3-2-1-0---------------------------------------|
Riff 8 W/Solo
Riff 8
Solo
e-------------------------------------------------------------------------------------|
B--------------------------/-12-12-12-12-12-12-13-12----------------------------------|
G------------------8------------------------------------------------------------------|
D----------------7---9----------------------------------------------------------------|
A--2--2b4r2--/-9----------------------------------------------------------------------|
E-------------------------------------------------------------------------------------|

I need to figure the rest of the solo out, I am having trouble hearing what Buzz is doing exactly

Riff 8
Riff 8
Outro
e-------------------------------------------------------------------------------------|
B-------------------------------------------------------------------------------------|
G--2-2-2-2-2-2--3-3-3-3-3-3-----------------5-5-5-4-4-4-------------------------------|
D--2-2-2-2-2-2--3-3-3-3-3-3---5-5-5-5-5-5---5-5-5-4-4-4-------------------------------|
A--0-0-0-0-0-0--1-1-1-1-1-1---5-5-5-5-5-5---3-3-3-2-2-2-------------------------------|
E-----------------------------3-3-3-3-3-3---------------------------------------------|
e-------------------------------------------------------------------------------------|
B-------------------------------------------------------------------------------------|
G-------------------------------------------------------------------------------------|
D--5-2--------------------------------------------------------------------------------|
A--5-2--------------------------------------------------------------------------------|
E--3-0----3-0-1-0-3-0-1-0-3-0-1-0---0-0-----------------------------------------------|