Evil New War God

From MelvinsWiki
Revision as of 02:00, 13 May 2010 by Samo (talk | contribs)
Jump to: navigation, search

Guitar Tab

Song: Evil New War God
Artist: Melvins
Tabbed By: Wa'hm
c---------------------------------------------------------------------------------------------|
G---------------------------------------------------------------------------------------------|
Eb-------99-X-12-1212-XX-1111-X-79------7------10---------------------------------------------|
Bb-------99-X-12-1212-XX-1111-X-79------7------10---------------------------------------------|
F--------77-X-10-1010-XX-9-9--X-57------5-------8---------------------------------------------|
C----------------------------------0000---00000-----------------------------------------------|
                                    PM      PM
RIFF#1
c---------------------------------------------------------------------------------------------|
G---------------------------------------------------------------------------------------------|
Eb--------99-X-121212-XX-1111-X--79------7-------10/9-----------------------------------------|
Bb--------99-X-121212-XX-1111-X--79------7-------10/9-----------------------------------------|
F---------77-X-101010-XX-9-9--X--57------5-------8-/7-----------------------------------------|
C----------------------------------0000---00000-----------------------------------------------|
                                    PM      PM
Riff#2
c---------------------------------------------------------------------------------------------|
G---------------------------------------------------------------------------------------------|
Eb-------------------------------------???????------------------------------------------------|
Bb--------------------------------------------------------------------------------------------|
F---------------------------------------------------------------------------------------------|
C---------------------------------------------------------------------------------------------|
RIFF#1
RIFF#2
RIFF#1 
RIFF#2 
RIFF#1 
RIFF#3 - PM'd
c---------------------------------------------------------------------------------------------|
G---------------------------------------------------------------------------------------------|
Eb--------------------------------------------------------------------------------------------|
Bb--------------------------------------------------------------------------------------------|
F---------------------------------------------------------------------------------------------|
C--------0-0-0-3-3-3-5-5-5-3-3-3-5-5-3-3-6-6-6-5-5-5-0-0-3-3-5-5-0-0-3-3-0--------------------| 
SOLO - w/ delay
c----------------------------------------------------/19------18-19~~-------------------------|
G---X~-~-~-~-~-~-~-~-~-~-~-~-~---------------------------19^----------------------------------|
Eb--X~-~-~-~-~-~-~-~-~-~-~-~-~-----7-9---7-9^-------------------------------------------------|
Bb--------------------------------------------------------------------------------------------|
F---------------------------------------------------------------------------------------------|
C---------------------------------------------------------------------------------------------| 
RIFF#4
c---------------------------------------------------------------------------------------------|
G---------------------------------------------------------------------------------------------|
Eb--------77-X-9-9999-XX-54-X-10-10101010-----------------------------------------------------|
Bb--------77-X-9-9999-XX-54-X-10-10101010-----------------------------------------------------|
F---------55-X-7-7777-XX-32-X-8--8-8-8-8------------------------------------------------------|
C---------------------------------------------------------------------------------------------| 
RIFF#3 x4
RIFF#4
RIFF#3 x4
RIFF#4
3:08
RIFF#5
c---------------------------------------------------------------------------------------------|
G---------------------------------------------------------------------------------------------|
Eb--------------------------------------------------------------------------------------------|
Bb--------------------------------------------------------------------------------------------|
F---------------------------------------------------------------------------------------------|
C----------0~-7~-~-6/7/6~-~-~-~3-5-3-5/4~-----------------------------------------------------|  x2
OUTRO - PM-d
c------------------------------------------------------------------------------------------------|
G------------------------------------------------------------------------------------------------|
Eb-----------------------------------------------------------------------------------------------|
Bb--------222---2---22---2---222---2---22---2---222----------------------------------------------|
F---------222---2---22---2---222---2---22---2---222----------------------------------------------|
C---------000---0---00---0---000---0---00---0---000----------------------------------------------| 
RIFF#5 x2