Hag Me

From MelvinsWiki
Jump to: navigation, search

"Hag Me" (Melvins) – 7:06

Originally from Houdini, 1993.

Lyrics

I got my ceiling, motor and mail

I only know the ceiling mouth.

I make my cell, yellow the sound

That emanates from under.

Give me an gravity, your right left leg

Hole in my hazer gives me you.

Cat say you'll never keep my breath

It's wise to think you'll try.


I grow the piston, I see the right'un only.

Make see the right'un, Gee knows the bitter roundly.


Reachin' and growin', all things in file

Give me the air to make my.

To hope for more antenna

Tee take the sender.

I stole your gravity, I damn your how

Don't hag me with your false green.


I grow the piston, I see the right'un only.

They see the right'un, Gee knows the bitter roundly.


Lay sin an own ay, like a barb

Baby freighk haybay, dee.

I'm in a lie, mida make a moo

Cross a stake rollin' the why,

Hey, hey, hey, hey.

Guitar TAB

Drop-D tuning

intro
E ------------------------------------------------
B ------------------------------------------------
G ------------------------------------------------
d -0--------------------------(0)-----------------
a -0--------------------------(0)-----------------
D -0--------------------------(0)-----etc---------

verse - play 3x (6x first time)
   1   2   3   4   1   2   3   4   1   2   3   4   1   2   
E ---------------------------------------------------------
B ---------------------------------------------------------
G ---------------------------------------------------------
d -0-------------------------------------------------------
a -0-------------------------------------------------------
D -0------------------------------------------------------- 


   1   2   3   4   1   2   3   4   1   2   3   4   1   2     
E ---------------------------------------------------------
B ---------------------------------------------------------
G ---------------------------------------------------------
d -1-------0-----------------------------------5---6-------
a -1-------0-----------------------------------5---6-------
D -1-------0-----------------------------------5---6-------
   ^                                               ^

chorus - play 2x 

   1   2   3   4   1   2   3   4   1   2   3   4   1   2   3   4     
E ------------------------------------------------------------------
B ------------------------------------------------------------------
G ------------------------------------------------------------------
d -1-----------------------0---1---3--------------------------------
a -1-----------------------0---1---3--------------------------------
D -1-----------------------0---1---3--------------------------------

E -------------------------------------------------
B -------------------------------------------------
G -------------------------------------------------
d -0-0-0-0-0-0-0-0-0---1---6---1---0-0-0-0-0-0-0-0-
a -0-0-0-0-0-0-0-0-0---1---6---1---0-0-0-0-0-0-0-0-
D -0-0-0-0-0-0-0-0-0---1---6---1---0-0-0-0-0-0-0-0-
   . . . . . . . .                 . . . . . . . .


near the end after chorus is played again, do this:
E ----------------------------
B ----------------------------
G ----------------------------
d-0---1---6-5-2-5-3-2-3---3---
a-0---1---6-5-2-5-3-2-3---3---
D-0---1---6-5-2-5-3-2-3---3---
                             
E ----------------------------
B ----------------------------
G ----------------------------
d-0-0-1-0-6-5-2-5-3-2-3-0-3-0-
a-0-0-1-0-6-5-2-5-3-2-3-0-3-0-
D-0-0-1-0-6-5-2-5-3-2-3-0-3-0-
  . .   .               .   .

E --------------------
B --------------------
G --------------------
d-0-0-1-0-6-5-2-5-3-2-
a-0-0-1-0-6-5-2-5-3-2-
D-0-0-1-0-6-5-2-5-3-2-
  . .   .

the end is pretty simple: 

E ----------------
B ----------------
G ----------------
d-0-0-0-0-0-0-0-1-
a-0-0-0-0-0-0-0-1-
D-0-0-0-0-0-0-0-1- 
  . . . . . . .

that's it.