Hooch

From MelvinsWiki
Jump to: navigation, search

"Hooch" (Melvins) – 2:51

Originally from Houdini, 1993.

Also appears on A Live History of Gluttony and Lust, 2006, and Melvinmania, 2003.


Lyrics

Los ticka toe rest. Might likea sender doe ree.

Your make a doll a ray day sender bright like a penelty.

Exi-tease my ray day member half lost a beat away.

Purst in like a one way sender war give a heart like a fay.


Cuz I can ford a red eed only street a wide a ree land.

Die-mond make a mid-evil bike a sake a like a ree caste.

Cuz I can ford a red eed only street a wide a ree land.

On a ree land. Find a ree land.


You sink a my swan. Rolly a get a worst in.

Maybe minus way far central poor forty duck a pin.

Milk maid dud bean. Master a load a head.

Pill pop a dope a well run general hash pump a gonna led.


© 1993 WB Music Corp./Green Lantern Music/Prison Bride Music (ASCAP)

Guitar TAB

  • Corrected June 2009


Dropped D Tuning


Drum Intro


Verse:
E-|-----------------|-----------------|----------------|
B-|-----------------|-----------------|----------------|
G-|-----------------|-----------------|----------------|
D-|-----------------|---6/7-7---------|----------------|
A-|-0-0-0-0-0-0-0-0-|-0-4/5-5---------|0-0-0-0-0-0-0-0-|
D-|-0-0-0-0-0-0-0-0-|-0-------0-0-0-0-|0-0-0-0-0-0-0-0-|
    . . . . . . . .   .       . . . .  . . . . . . . .    
E-|-----------------|
B-|-----------------|
G-|-----------------|
D-|---6/7-7---------|    repeat without last bar
A-|-0-4/5-5-0-0-3p0-|
D-|-0-------0-0-3p0-|
    .       . . 
Bridge:
E-|-----------------|----------------|-----------------|
B-|-----------------|----------------|-----------------|
G-|-----------------|----------5-----|-----------------|
D-|---6/7-7-------6-|--6-6-5-6-5-6-0-|-3-3-3-2-3-2-3-0-|
A-|-0-4/5-5-0-0-0-6-|--6-6-5-6---6-0-|-3-3-3-2-3-2-3-0-| 
D-|-0-------0-0-0---|----------------|---------------0-|
    .       . . .                                       
Verse & Bridge are then repeated
then     
Chorus:
E-|-----------------|----------------|-----------------|
B-|-----------------|----------------|-----------------|
G-|-----------------|----------------|-----------------|
D-|-3-3-3-2-3-3-5-6-|----6-6-6-3-6-5-|---5-5-0-5-0-5-0-|
A-|-3-3-3-2-3-3-5-6-|----6-6-6-3-6-5-|---5-5-0-5-0-5-0-|
D-|-----------3-5-6-|----6-6-6-3-6-5-|---5-5-0-5-0-5-0-|
                                             .   .   .
E-|-----------------|----------------|
B-|-----------------|----------------|
G-|-----------------|----------------|
D-|-3-----0--0-3-0--|-3--0--0-3-5-6--|
A-|-3-----0--0-3-0--|-3--0--0-3-5-6--|
D-|-3-----0--0-3-0--|-3--0--0-3-5-6--|
                                  
repeat 3 times, exchange last bar 3rd time with this:
E-|-----------------|----------------|
B-|-----------------|----------------|
G-|-----------------|----------------|
D-|-3b----0---0-3-0-|-3----0-----x-x-|
A-|-3b----0---0-3-0-|-3----0-----x-x-|
D-|-3b----0---0-3-0-|-3----0-----x-x-|
                  .        

Repeat all.

Have fun