If I Had An Exorcism

From MelvinsWiki
Jump to: navigation, search

"If I Had An Exorcism" (Osborne) – 3:07

Originally from Bullhead, 1991.

Lyrics

It's not like a you could feel just

Like what you want more

Metal, heh!

Hangin' from your neck like

Feels too good to be real

Like somebody took a coathanger

Munched it and tore it from the sign

stin...stern...st'nning

numzph-numonh, bleeargh.

Guitar TAB

Intro [x = Finger mute.]
  1   2   3   4   1   2   3   4     1   2   3   4   1   2   3   4     
e---------------------------------|---------------------------------
b---------------------------------|---------------------------------
g---------------------------------|---------------------------------
d-x-x-x-x---------x-x-------------|-x-x-------------x-x-----x-x-----
a-x-x-x-x---------x-x-------------|-x-x-------------x-x-----x-x-----
e-x-x-x-x---------x-x-------------|-x-x-------------x-x-----x-x-----

e---------------------------------|---------------------------------
b---------------------------------|---------------------------------
g---------------------------------|---------------------------------
d-----------------x-x-x-x---------|-----------------x-x-x-----------
a-----------------x-x-x-x---------|-----------------x-x-x-----------
e-----------------x-x-x-x---------|-----------------x-x-x-----------
                                                           "Like some-
body took a coathanger"   
e---------------------------------|---------------------------------
b---------------------------------|---------------------------------
g---------------------------------|---------------------------------
d-----------------x-x-x-----------|-----------------x-x-x-----------
a-----------------x-x-x-----------|-----------------x-x-x-----------
e-----------------x-x-x-----------|-----------------x-x-x-----------

e---------------------------------|---------
b---------------------------------|---------
g---------------------------------|---------
d-----------------x-x-x-----------|---------
a-----------------x-x-x-----------|---------
e-----------------x-x-x-----------|---------

e---------------------------------|---------------------------------
b---------------------------------|---------------------------------
g---------------------------------|---------------------------------
d---------------------------------|---------------------------------
a-3-3-3---2-----------2-----------|-3-3-3---2-----------2-----------
e-1-1-1---0-----------0-----------|-1-1-1---0-----------0-----------
  
e---------------------------------|-----------------------------
b---------------------------------|-----------------------------
g---------------------------------|-----------------------------
d---------------------------------|-----------------------------
a-3-3-3---2-----------4-----------|---------6-5-6-5-6-5-4-------
e-1-1-1---0-----------2-----------|---------4-3-4-3-4-3-2-------
  
e---------------------------------|-------------
b---------------------------------|-------------
g---------------------------------|-------------
d---------------------------------|-------------
a-3---5---3---8-------5-------7---|-----5-------
e-1---3---1---6-------3-------5---|-----3-------

This isn't right but it sounds ok
e---------------------------------|---------------------------------
b---------------------------------|---------------------------------
g---------------------------------|---------------------------------
d-------3^----------------3^------|-------2^------------------------
a---------------------------------|---------------------------------
e-1-1-0-----0-0-0-0-1-0-0---0-0-0-|-0-0-0-----0-0-0-0-0-0-0-0-------

Play these two bars a few times
e-0---0---0---0---0---0---0---0---|-0---0---0---0---0---0---0---0---
b-6^--6---6---6^--6---6---6---6---|-6^--6---6---6---6---6---6---6^--
g---------------------------------|---------------------------------
d---------------------------------|---------------------------------
a---------------------------------|---------------------------------
e---------------------------------|---------------------------------
  Harmonics....

e-0---0---0---0---0---0---0---0---|-0---0---0---0---0---0---0---0---
b-5^--5---5---5---5---5---5---5^--|-5^--5---5---5---5---5---5---5^--
g---------------------------------|---------------------------------
d---------------------------------|---------------------------------
a---------------------------------|---------------------------------
e---------------------------------|---------------------------------
  Harm...

Keep playing this until the song ends:

e-0---0---0---0---0---0---0---0---|-0---0---0---0---0---0---0---0---
b-5---5---5---5---5---5---5---5---|-5---5---5---5---5---5---5---5---
g---------------------------------|---------------------------------
d---------------------------------|---------------------------------
a---------------------------------|---------------------------------
e---------------------------------|---------------------------------
  Harm...


Bass outro:

g---------------------------------------|
d---------------------------------------|
a-3-3-3-3-2-2-2-2-----------------------|
e-----------------2-2-2-2-3-3-2-3-2-3-0-|

 Play that a number of times.

then:

g---------------------------------|--------------------------------|
d---------------------------------|--------------------------------|
a-3-3-3-3-------------------------|--------------------------------|
e---------3-3-3-3-5-5-5-5-5-5-5-5-|3-3-3-3-3-3-3-3-2-2-2-2-2-2-2-2-|

g---------------------------------
d---------------------------------
a---------------------------------
e-0-ring--------------------------