It's Shoved

From MelvinsWiki
Jump to: navigation, search

"It's Shoved" (Osborne) – 2:35

Originally from Bullhead, 1991.

Also released on the Lizzy single, It's Shoved/Forgotten Principles single, Singles 1-12, Alive at the F*cker Club, Your Choice Live, and on the DVD Salad of a Thousand Delights.

Lyrics

For the love maze for me to show you

Look show

Can't even handwrite

I got somethin'

You got holy doll

I'm a leather man

Guarentee

Then when we caught a big pack of bad cats

Always raising paws

Always chucking tails

Kiss that little head

Make 'em Demerol

Eat some Petromalt

So they see


Bass TAB

tabbed by ingram
 

Repeat 24x
g----------------------------------
d----------------------------------
a--------4-4-----------------------
e--0-0-0-----3-3-0-3-3-3-5-5-0-0-3-

Play 1x
g----------------------------------
d----------------------------------
a----4-----------------------------
e--0---3-0-x-x-x-3-5-5-3-5-3-0-3-0-

Repeat 3x
g----------------------------------
d----------------------------------
a--------4-4-----------------------
e--0-0-0-----3-3-0-5-5-3-5-3-0-3-0-

Play 1x
g----------------------------------
d----------------------------------
a----------------------------------
e--0---0---0-0-0-3---3-3---3-3-3-3-

Repeat 10x
g------------------
d------------------
a------------------
e--0-0-0-0-0-0-0-0-

Play 2x
g----------------------------------
d----------------------------------
a------7-----7-5-----5-----5-4-5-4-
e--0-0---0-0-----5-7---7-5---------

Ending
g----------------------------------
d----------------------------------
a----------1-2-4-3---------2-3-----
e--5-4-1-2---------4-3-2-3-----0---