Keep Away From Me

From MelvinsWiki
Revision as of 20:17, 27 April 2009 by Green Honey (talk | contribs) (Guitar Tab)
(diff) ← Older revision | Latest revision (diff) | Newer revision → (diff)
Jump to: navigation, search

Guitar Tab

riff 1 - verse

E|-------------------------------------------------|
B|-------------------------------------------------|
G|-------------------------------------------------|
D|-------------10---9----7-------------7-----------|
A|-9--9--9--9--8----7----5-9--9--9--9--5----7----8-|
E|-7--7--7--7--------------7--7--7--7-------5----6-|


riff 2 - chorus

E|-------------------------------------------------|
B|-------------------------------------------------|
G|-------------------------------------------------|
D|-9--9--9--9--9--9--9--9--------------------------|
A|-7--7--7--7--7--7--7--7--7-/9--9--9--7-/9--9--9--|
E|-------------------------5-/7--7--7--5-/7--7--7--|


riff 3 - bridge/outro

E|-------------------------------------------------|
B|-------------------------------------------------|
G|-------------------------------------------------|
D|-------------------7-----------------------------|
A|-9--9--9--9--9--9--5--7--9--9--9--9--9--9--7--8--|
E|-7--7--7--7--7--7-----5--7--7--7--7--7--7--5--6--|