Oven

From MelvinsWiki
Jump to: navigation, search

"Oven" (Osborne) – 1:28

Originally from Ozma, 1989.

Lyrics

I coulda swore I gave my wedding ring to you.

Among the chewing gears you taunt me tear.

Elements are still alive to shake from ear to ear.

Pez are gonna let it slide, gonna burn what cotton decides are apelee.

My main oven drive, he took from under what's come over me.


© 1989 Boner Records


Guitar TAB

#----------------------------------PLEASE NOTE---------------------------------#
#This file is the author's own work and represents their interpretation of the #
#song. You may only use this file for private study, scholarship, or research. #
#------------------------------------------------------------------------------##
Date: 17 Dec 95 15:15:59 EST
From: Rene Jung <100613.2677@compuserve.com>
                                                                              
Subject: Oven by the Melvins
Album: Ozma

This song is weird because of the rhythm. I try to indicate
that as clear as possible. Maybe I even got it about right.
Muted parts are indicated with x. Mute it heavily!

    1       2       3   +  4   +     1       2       3   +
E-|--------------------------------|------------------------|
B-|--------------------------------|------------------------|
G-|-3-------3---------4------4-----|-3-------3---------4----|repeat
D-|-3-------3---------4------4-----|-3-------3---------4----|1st bar
A-|-1-1-1-1-1-1-1-1---2------2-----|-1-1-1-1-1-1-1-1---2----|
E-|---0-0-0---0-0-0-0------0-------|---0-0-0---0-0-0-0------|
      x x x   x x x x      x           x x x   x x x x                                        
      
   4/4       1  2  3  +   4    +                1 2  3  +  4                                              
E-|--------|-----------------------|repeat     -------------------|
B-|--------|-----------------------|2 1/2x     -------------------|
G-|--------|-3--------------4------|           -3-----------------|
D-|--------|-3--------------4------|3rd        -3-----------------|
A-|-1------|-1--------------2------|ending:    -1-----------------|
E-|-0------|----------0-0-0--------|           ---------0-0-0-0---|
                      x x x                             x x x x                          
                      
    1       2   4/4          1 2 3 4   +                                                  
E-|-----------|------------|-------------|
B-|-----------|no guitar---|-------------|
G-|-----------|for---------|-------------|
D-|-----------|8 measures--|-------------|
A-|-----------|------------|-------------|
E-|-0-0-0-0---|------------|-----------0-|
    x x x x                            x                                               
    
   7/8      1   2   + 3 +    1    2    3  +                                                   
E-|-------|----------------|-----------------|
B-|-------|----------------|-----------------|
G-|-3-----|----------------|-3---------------|
D-|-3-----|----------------|-3---------------|
A-|-1-----|-1-1-----1------|-1----1-1--------|
E-|-------|-0-0-----0---0--|------0-0-----0--|
            x x     x   x         x x     x                                            
            
   3/4      1    2       3       4                                                                            
E-|-------|------------------------------|
B-|-------|------------------------------|
G-|-3-----|-3----------------------------|
D-|-3-----|-3----------------------------|
A-|-1-----|-1----1-------1-------1-------|
E-|-------|------0-0-0-0-0-0-0-0-0-0-0-0-|
                 x x x x x x x x x x x x                                                              
                 
Riff A:                             End Riff A 

    1  2   +  3   +     1       2   + 3  +                                                                       
E-|-------------------|---------------------|
B-|-------------------|---------------------|
G-|-------------------|---------------------|
D-|-2-----------------|---------------------|
A-|-2-----------------|-------2----------1--| 
E-|-0------0------0-0-|-0-2-3---3-2-3-2-----|
                                                                               
                                                                               
   1        2  +   3   4                 4
E-|----------------------|Repeat  ----------------|
B-|----------------------|Riff A  ----------------|
G-|----------------------|Add:    ----------------|
D-|----------------------|        ----------------|
A-|----------------------|        ----------------|
E-|-0-0-0-0----0-0-0-0---|        --------0-0-0-0-|
    x x x x    x x x x                    x x x x                                                        
                                                                               
   Repeat Riff A, then: 

    1       2       3      1       2       3       4
E-|----------------------|---------------------------------|----|
B-|----------------------|---------------------------------|----|
G-|----------------------|---------------------------------|----|
D-|----------------------|---------------------------------|----|
A-|-1-------1------------|-1-------1-------1-------1-------|-1--|
E-|-0-0-0-0-0-0-0-0------|-0-0-0-0-0-0-0-0-0-0-0-0-0-0-0-0-|-0--|
    x x x x x x x x        x x x x x x x x x x x x x x x x   x


Bass TAB

G|-----------------------------
D|-----------------------------
A|-----------------------2--2--
E|-1-0-0-0-1-0-0-0--0--0-------

G|-------------------------
D|-------------------------
A|-----------------------2-
E|-1-0-0-0-1-0-0-0--0------

G|------------------------------
D|------------------------------
A|-----------------------2--1---
E|-1-0-0-0-1-0-0-0--0--0-------

(I coulda swore i gave my wedding ring to you)
G|-----------------------------
D|-----------------------------
A|---------1-----2------------
E|-0---00---000--------------

G|-----------------------------
D|-----------------------------
A|---------1-----2------------
E|-0---00---000--------------

G|-----------------------------
D|-----------------------------
A|---------1-------------------
E|-0---00---0000----0000--- 


(Drum part)

G|-----------------------------
D|-----------------------------
A|---1---1--------------------
E|-0--------00--0------------ 

G|-----------------------------
D|-----------------------------
A|---1-------------------------
E|-0-------00----------------- 

G|-----------------------------
D|-----------------------------
A|---1---1---1----1----------
E|-0---------------------------

G|-----------------------------
D|-----------------------------
A|-----------------------------
E|-1-0-0-0-1-0-0-0---------- 

G|-----------------------------
D|-----------------------------
A|-----------------------------
E|-1-0-0-0-1-0-0-0---------- 

G|-----------------------------
D|-----------------------------
A|-----------------------------
E|-0---0---2-3-2-3-2-5------

(drum thing, bass pause)

G|-----------------------------
D|-----------------------------
A|-----------------------------
E|-0---0---2-3-2-3-2-5------

G|-----------------------------
D|-----------------------------
A|-----------------------------
E|-0---0---2-3-2-3-2-5------

G|-----------------------------
D|-----------------------------
A|-----------------------------
E|-1-0-0-0-1-0-0-0----------

G|-----------------------------
D|-----------------------------
A|-----------------------------
E|-10001000-----------------


It might not make much sense reading it, but play along and listen


Drum TAB

Drummer Dale Crover

Tabbed by Ryan (ragezer@aol.com) 


Play everything once unless noted otherwise.

C -X----------------X--X--
Ht--------------------o---
Ft---o-o-o-o-o-o-o-o--o---
S -o-------o-------o------
B -o-o-o-o-o-o-o-o--o--o--

C -X----------------X--
Ht---------------------
Ft---o-o-o-o-o-o-o-o---
S -o-------o-------o---
B -o-o-o-o-o-o-o-o--o--

C -X----------------X--X--
Ht--------------------o---
Ft---o-o-o-o-o-o-o-o--o---
S -o-------o-------o------
B -o-o-o-o-o-o-o-o--o--o--

C -X-------------X-----------X--
Ht---------o---o----------ooo---
Ft---------o---o----------ooo---(2x)
hh---x---x---x------x---x-------
S ------------------------------
B -o-------------o--------oooo--

C -X-------------X------------------
Ht---------o---o----------oooo-oooo-
Ft---------o---o----------oooo-oooo-
hh---x---x---x------x---x-----------
S ----------------------------------
B -o-------------o--------oooo-oooo-


hh-X---x---x-X---X---X--X---X------------------
S -o--------------------o---o------------------(3x)
B -oo--------o---o---o------oo------oo------oo- 


C ---X----------------------X---------
Ft-o----------------------o-----------
hh-----x-x-x-x-x-X----X-------x-X-----
S -o-------o-----o----o---o-----o-----
B ---o-----------oo---------o---oo----

C ---X---------------X-------X-------X-------
Ft-o-----------------------------------------
hh-----x-x-x-x-x-x-x-----x-------x-------x---
S -o-------o-----o---o-------o-------o-------
B ---o---------------o-o-o-o-o-o-o-o-o-o-o-o-

C --X---------------------------------
Ht--------------------------oooo-oooo-
Ft--------------------------oooo-oooo-
hh----x-x-x-x-x-x-x-X-X-x-x-----------
S ------o-------o-------o-o-----------
B --o-----o---oo-oooo-o-----oooo-oooo-
Pause between this and next riff

C --X----------------------------
Ht--------------------------oooo-
Ft--------------------------oooo-
hh----x-x-x-x-x-x-x-X-X-x-x------
S ------o-------o-------o-o------
B --o-----o---oo-oooo-o-----oooo-
No Pause

C --X---------------------------------------
hh----x-x-x-x-x-x-x-X-X-x-x-x---x---x---x---
S ------o-------o-------o-o-o-------o-------
B --o-----o---oo-oooo-o-----o-o-o-o-o-o-o-o-

C -X-------X-------X-------X-------X-
hh-----x-------x-------x-------x-----
S -o-------o-------o-------o-------o-
B -o-o-o-o-o-o-o-o-o-o-o-o-o-o-o-o-o-