Pearl Bomb

From MelvinsWiki
Jump to: navigation, search

"Pearl Bomb" (Melvins) – 2:45

Originally released on Houdini, 1993.

Lyrics

Croak radio gives me the shakes.

That's no surprise

Cuz I can feel both barrels of your eyes.

Understand what I'm sayin just like a hole beat red.

You think I'm bine.

You take a leg.

You feel a nice teen tone bime-b-b-bye.

Left dog.

See big, boy, after

Your dirty little tee bits all in seein my meat.

I took a team of you. Your bo-dy.

For left-ov-er your sane.


Green water like a sugarback I bet your bine.

Read both bladder steps of foamy decline.

Limbo. Lacky. Sucker.

Yes her limbo baba's at home

And they cry like half-dead dog bug.


Bass Tab

bennield@hotmail.com

part 1, main riff:
E|---------------------------------|---------------------------------
B|---------------------------------|---------------------------------
G|---------------------------------|---------------------------------
A|---------------------------------|---------------------------------
E|-0-0-0-0-0-7-0-6~----------------|-0-2-0-5-0-0-0-0-0-2-0-3-0-0-0-0-

E|---------------------------------|
B|---------------------------------|
G|---------------------------------|
A|---------------------------------|
E|-0-2-3-2-3-2-3-0-2-1-2-1-2-1-2-0-|


part 2
E|---------------------------------|-------------------------------|
B|---------------------------------|-------------------------------|
G|---------------------------------|-------------------------------|
A|---------------------------------|-------7---7-----------7---7---|
E|-0-0-0-1-0-1-0-0-4-3-3-0\7-7-6---|-0-6-0---7---6-6-0-6-0---7---6-|


part 3 - play 5 times
E|-------------------------------------|
B|-------------------------------------|
G|-------------------------------------|
A|-------------------------------7-6---|
E|-0-0-0-0-0-0-0-0-0-0-0-0-0-0-0-----0-|


Outro
E|---------------------------------------|
B|---------------------------------------|
G|-9-8---9-8---9-8---9-8---9-8---8---8-8-|
A|-7-6---7-6---7-6---7-6---7-6---6---6-6-|
E|---------------------------------------|