Pigs Of The Roman Empire

From MelvinsWiki
Jump to: navigation, search

"Pigs Of The Roman Empire" (Osborne/Lustmord) – 22:29

Originally from Pigs Of The Roman Empire with Lustmord, 2004.

Lyrics

[Instrumental]


Guitar TAB

*Live Version*

tune E string down to D

First Riff

a-------1-3-------------------1--(gradually bend--|
D-0---5-----3---5b--0-3-5-0-----------------------|


2nd Riff

d---------------------------------
a-----------------------3-----5---
D-0-0-0-0-0-0-0-0-0-0-0---5-3-----
  . . . . . . . . . . .

d---------11b------------3---------------------|
a--------------------------5-------------------|
D-0-0-0-0-------0-0-0-0------0-0-3-5---5-3-5-3-|
  . . . .       . . . .      . .