Real Fucking Nasty

From MelvinsWiki
Revision as of 23:06, 30 January 2008 by Bathroom creep (talk | contribs)
(diff) ← Older revision | Latest revision (diff) | Newer revision → (diff)
Jump to: navigation, search

Guitar Tab

"Real Fucking Nasty" - Melvins/HOF split

drop d tuning

Riff 1

e---------------------------------------------------------------------------------
b---------------------------------------------------------------------------------
g--8-8--9-9-----------------------------------------------------------------------
d--8-8--9-9-----------------------------------------------------------------------
a--6-6--7-7-----4-6-7--1-1-1------------------------------------------------------  x3
d---------------4-6-7--1-1-1------------------------------------------------------
e---------------------------------------------------------------------------------
b---------------------------------------------------------------------------------
g--8---------8---------8---------8------------------------------------------------
d--8---------8---------8---------8------------------------------------------------
a--6---------6---------6---------6------------------------------------------------
d---------------------------------------------------------------------------------

Riff 2

e---------------------------------------------------------------------------------
b---------------------------------------------------------------------------------
g--2------------------------------------------------------------------------------
d--2----------6-------------------------------------------------------------------
a--0-----0----6-----1--4--1--4--1--2--1-------------------------------------------  x2
d--------0----6-----1--4--1--4--1--2--1-------------------------------------------

Riff 3 (with lyrics)

e---------------------------------------------------------------------------------
b--4------------------------------------------------------------------------------
g--2----------8-------------------------------------------------------------------
d--2----------6-------------------------------------------------------------------
a--0-----0----6-----1--4--1--4--1--2--1-------------------------------------------  x4
d--------0----6-----1--4--1--4--1--2--1-------------------------------------------

Riff 1

e---------------------------------------------------------------------------------
b---------------------------------------------------------------------------------
g--8-8--9-9-----------------------------------------------------------------------
d--8-8--9-9-----------------------------------------------------------------------
a--6-6--7-7-----4-6-7--1-1-1------------------------------------------------------  x3
d---------------4-6-7--1-1-1------------------------------------------------------
e---------------------------------------------------------------------------------
b---------------------------------------------------------------------------------
g--8---------8---------8---------8------------------------------------------------
d--8---------8---------8---------8------------------------------------------------
a--6---------6---------6---------6------------------------------------------------
d---------------------------------------------------------------------------------

Riff 3 (with lyrics)

e---------------------------------------------------------------------------------
b--4------------------------------------------------------------------------------
g--2----------8-------------------------------------------------------------------
d--2----------6-------------------------------------------------------------------
a--0-----0----6-----1--4--1--4--1--2--1-------------------------------------------  x4
d--------0----6-----1--4--1--4--1--2--1-------------------------------------------


ends with bass, drums and guitar noise


I'm not too sure about riff 3.