Revolve

From MelvinsWiki
Jump to: navigation, search

"Revolve" (words: Osborne; music: Deutrom/Osborne) – 4:44

Originally from Stoner Witch, 1994

Lyrics

Freedom unlike stems from walk away

You gotta hold your time, you gotta hit it with her right away


Maybe black Jew fight for any like the won't see

In a way it's sane, in a way it's gotta mean


Red sister might be joking but I ain't about that kind

Answer me with the rhythm of a body that was born to lose two times


Hey big bonehead

He said deny but your boy did lie

Hit my shoulder

Big Boat deluxe, Big Boat deny


They might try to hide

They have to have some more death sense

You might be right like a ball in the wind


Poison dandy lifeforms crime

Mix both down cross, sticky pen on the the line


The flavor might be missin' but he acts to cross that anyway

You can bet he can fiddle with the promise of the power of another day


Hey big bonehead

He said deny but your boy did lie

Hit my shoulder

Big Boat deluxe, Big Boat denies


Two of us sore by a bullet

When have you stole my time

What'd you say to the watching?

Do or die

Venomous strange and weird

King is standing by

King of this said you got it?

Watch me eye

Guitar Tab

Tabbed by Thomas P., march_of_pig[@]hotmail.com + greenhoney

Hi, here is another tab I made, the other Revolve tabs I found were incomplete and some mistakes.


Drop-D tuning


Intro:
E||-----------------------------------------------------------||
B||-----------------------------------------------------------||
G||*-------x-x----------------x-x------x-x------x-x------x-x-*||
D||*--5h-7-x-x-7--7p-(5)-5s-6-x-x-5h-6-x-x-5h-6-x-x-5h-6-x-x-*||
A||---5----x-x-5--5------5----x-x-5----x-x-5----x-x-5----x-x--||
D||-----------------------------------------------------------||


Verse: (play 4x w/ a heavier PM the third and fourth times)
--------------------------------------|------------------------------------|
--------------------------------------|------------------------------------|
*-------------------------------------|------------------------------------|
*-------------------------------------|------------------------------------|
---0--0--0--0--0--0--0-0--0--0--0--2--|--3--3--3--3--3--3--3-3--3--3p-0-0--|
---0--0--0--0--0--0--0-0--0--0--0--2--|--3--3--3--3--3--3--3-3--3--3p-0-0--|
      PM    PM    PM   PM PM PM PM PM       PM    PM    PM   PM PM PM   PM

---------------------------------------|
---------------------------------------|
---------------------------------------|
---------------------------------------|
--3s-5--5----5--5--5--5--5--5--5--5-5--|
--3s-5--5----5--5--5--5--5--5--5--5-5--|
        PM   PM PM PM PM    PM PM
------------------------------------------||
------------------------------------------||
-----------------------------------------*||
-----------------------------------------*||
--5--5--5--5--5--5--5--5--5--5--1--0------||
--5--5--5--5--5--5--5--5--5--5--1--0------||
  PM PM PM PM PM PM PM PM PM PM


Chorus:
-----------------|---------------------|---------------------------------|---------------------------------
-5--5-5--5-------|---------------------|---------------------------------|---------------------------------
-5--5-5--5-------|---------------------|-8---7---x-x-8---7---------------|-8---7---x-x-8---7---------------
-5--5-5--5---0---|-3--3-3--3-----------|-8---7---x-x-8---7---------------|-8---7---x-x-8---7---------------
-3--3-3--3---0---|-3--3-3--3---0---1---|-6---5---x-x-6---5---x-x-3p0-x-x-|-6---5---x-x-6---5---3p0-3p0-x-x-
-------------0---|-3--3-3--3---0---1---|---------------------x-x-3p0-x-x-|---------------------3p0-3p0-x-x-
-----------------|-------------
-5--5-5--5-------|-------------
-5--5-5--5-------|-------------
-5--5-5--5---0---|-3--3-3--3---
-3--3-3--3---0---|-3--3-3--3---
-------------0---|-3--3-3--3---

|-----------------------------------------|-------------------------
|-----------------------------------------|-------------------------
|-----------------------------------------|-------------------------
|---------------6--6--5--5--------3-------|-------------------------
|-0---1---0--0--6--6--5--5--6--6--3---6---|-5--5--4--4--3--3--2--2--
|-0---1---0--0--------------6--6------6---|-5--5--4--4--3--3--2--2--
 
-----------------------------------------|---------------------------------
-----------------------------------------|---------------------------------
-----------------------------------------|---------------------------------
---------------6--6--5--5--------3-------|---------------------------------
-0---1---0--0--6--6--5--5--6--6--3---6---|-5--5--4--4--3--3--2--2--3-2-0---
-0---1---0--0--------------6--6------6---|-5--5--4--4--3--3--2--2--3-2-0---


Then play Verse and Chorus one more time.


Break:
|-----------------------------
|-----------------------------
|-----------------------------
|----------------------------- etc.
|-0-0-0-0-----0-0-0-0-----3br-
||0-0-0-0-----0-0-0-0-----3br-
  PM. . .     PM. . .
--------------------|-------------------|-------------------|-----------------------
--------------------|-------------------|-------------------|-----------------------
--------------------|-------------------|-------------------|-----------------------
--------------------|-------------------|-------------------|-----------------------
--5~----------------|--Ring-------------|--Ring-------------|-----------------------
--------------------|-------------------|-------------------|----------------12\----

 Then
||---------------------------------|---------------------------------||
||---------------------------------|---------------------------------||
||*--5\-7--7-7---7-7---7--x-7-7-7--|-5--7--7-7---7-7---7--7--7br----*||
||*--5\-7--7-7---7-7---7--x-7-7-7--|-5\-7--7-7---7-7---7--7--7br----*||
||---3\-5--5-5---5-5---5--x-5-5-5--|-3\-5--5-5---5-5---5--5--5br-----||
||---------------------------------|---------------------------------||
"Two of us sore by a bullet..."
|-----------------------------
|-----------------------------
|-----------------------------
|----------------------------- etc.
|-0-0-0-0-----0-0-0-0-----3br-
||0-0-0-0-----0-0-0-0-----3br-
  PM. . .     PM. . .


Pre-Solo Riff
||------------------------|-----------------------||
||------------------------|-----------------------||
||*--7------7------7--7-7-|--7------7------4--5--*||
||*--7------7------7--7-7-|--7------7------4--5--*||
||---5------5------5--5-5-|--5------5------2--3---||
||------------------------|-----------------------||


Riff under the Solo:
|----------------------------|----------------------------|
|----------------------------|----------------------------|
|--7---7---------------------|--7---7---------------------|
|--7---7---------3-----------|--7---7---------3-----------|
|--5---5---2-3-5---5-3-2--3--|--5---5---2-3-5---5-3-2--3--|
|----------------------------|----------------------------|


Solo:
|---------------------|--------------------------|--------------------------|
|---------------------|--------------------------|--------------------------|
|---------------------|--10----------------------|--12----------------------|
|--12~----------------|-----12~------------------|-----12~------------------|
|---------------------|--------------------------|--------------------------|
|---------------------|--------------------------|--------------------------|
--------------------------|------------------------------------------|
--------------------------|--13b---13br------13-10-------10-13-10----|
--11----------------------|------------------------12-10----------12-|
-----12~------------------|------------------------------------------|
--------------------------|------------------------------------------|
--------------------------|------------------------------------------|
--------------------------------------|----------------------------------------|
--10----------------------------------|--13b---13br------13-10-------10--------|
-----12-10----10----------------------|------------------------12-10----12-10--|
-----------12----12-10-12~------------|----------------------------------------|
--------------------------------------|----------------------------------------|
--------------------------------------|----------------------------------------|
--------------------------------------|----------------------|
--------------------------------------|----------------------|
--12b---12br------10-12-10-12-10~-----|--12br----------------|
--------------------------------------|----------------------|
--------------------------------------|----------------------|
--------------------------------------|----------------------|
----------------------|----------------------|-------------------------|
----------------------|----------------------|-------------------------|
--12br----------------|--12br----------------|--12br-------------14----|
----------------------|----------------------|-------------------------|
----------------------|----------------------|-------------------------|
----------------------|----------------------|-------------------------|
----------------------------------------|
-----13-----13-----13-----13-----13S--0-|
--14-----14-----14-----14-----14--------|
----------------------------------------|
----------------------------------------|
----------------------------------------|
----------------------------------------|
-----13-----13-----13-----13-----13S--0-|
--14-----14-----14-----14-----14--------|
----------------------------------------|
----------------------------------------|
----------------------------------------|
----------------------------------------|
-----13-----13-----13-----13-----13-----|
--14-----14-----14-----14-----14-----14-|
----------------------------------------|
----------------------------------------|
----------------------------------------|
--------------------------------------------|---------------------|
--13-----13-----13-----13-------------------|---------------------|
------14-----14-----14----14-12-10----10----|---------------------|
-----------------------------------12----12-|--12~----------------|
--------------------------------------------|---------------------|
--------------------------------------------|---------------------|
--------------------------|---------------------|------------|-----------|
--------------------------|---------------------|------------|-----------|
--10----------------------|---------------------|--12br------|-----------|
-----12~------------------|--12~----------------|------------|---10~-----|
--------------------------|---------------------|------------|-----------|
--------------------------|---------------------|------------|-----------|


Outro:
|--------------------------|--------------------------|
|--------------------------|--------------------------|
|--5-----------------------|--------------------------|
|--5-----------------------|--3-----------------------|
|--3---------Ring----------|--3---------Ring----------|
|--------------------------|--3-----------------------|

|-----------------------------------------|-------------------------
|-----------------------------------------|-------------------------
|-----------------------------------------|-------------------------
|---------------6--6--5--5--------3-------|-------------------------
|-0---1---0--0--6--6--5--5--6--6--3---6---|-5--5--4--4--3--3--2--2--
|-0---1---0--0--------------6--6------6---|-5--5--4--4--3--3--2--2--
 
-----------------------------------------|---------------------------------
-----------------------------------------|---------------------------------
-----------------------------------------|---------------------------------
---------------6--6--5--5--------3-------|---------------------------------
-0---1---0--0--6--6--5--5--6--6--3---6---|-5--5--4--4--3--3--2--2--3-2-0---
-0---1---0--0--------------6--6------6---|-5--5--4--4--3--3--2--2--3-2-0---
---------------------||
---------------------||
---------------------||
---------------------||
--0------------------||
--0------------------|| 
That's it!


Songflow:
INTRO 5x
VERSE 2x
VERSE 4x w/heavy PM
CHORUS
VERSE 4x w/heavy PM
CHORUS
RIFF 1 3x
RIFF 2 2x
RIFF 1 4x
RIFF 1 6x w/heavy PM
RIFF 3 3x
BRIDGE 20x
C G
END OF CHORUS 2x