Difference between revisions of "Sacrifice"

From MelvinsWiki
Jump to: navigation, search
(Bass TAB)
(Lyrics)
 
(6 intermediate revisions by the same user not shown)
Line 6: Line 6:
  
 
==Lyrics==
 
==Lyrics==
Can you hear the war cry?
+
Can you hear the War Cry?
  
 
It's time to enlist
 
It's time to enlist
  
The people speak as one
+
The People speak as One
  
The cattle, the crowd
+
The Cattle; the Crowd
  
Those too afraid to live
 
  
Demand a sacrifice
+
Those too afraid to live demand a Sacrifice
  
 
Of your life
 
Of your life
Line 24: Line 23:
 
Can you smell their stinking breath?
 
Can you smell their stinking breath?
  
Listen to them
+
Listen to them wheezing and gasping and
  
Wheezing and gasping and
+
Chanting their slogans
 +
 
 +
 
 +
It's a gravedigger's song, praising God & State
 +
 
 +
So the Nation will live; so we all can remain as cattle
 +
 
 +
 
 +
They demand a Sacrifice
 +
 
 +
Of your life
 +
 
 +
----
 +
 
 +
'''''[Flipper's version]:'''''
  
Chanting their slogans
 
  
It's a grave digger's song
+
Can you hear the War Cry?
 +
 
 +
It's time to enlist
 +
 
 +
The People speak as One
 +
 
 +
The Cattle; the Crowd
 +
 
  
Praising God & State
+
Those too afraid to live demand a Sacrifice
  
So the Nation will live
 
  
So we all can remain as cattle.
+
Can you hear them wheezing?
  
 +
Listen to them, chanting their slogans
  
  
'''''[extra lyrics from Flipper's version]:'''''
+
It's a gravedigger's song, demanding a Sacrifice
  
Can you smell the fresh blood
 
  
Steaming into the soil?
+
Can you see the fresh blood steaming from the soil?
  
As our patriots,
+
As our fathers and mothers
  
Fathers, mothers and lovers
+
Our Patriots and lovers
  
Admire the military style
+
Admire the Military style; Praising God and State
  
Praising God and the State
+
So the Nation can remain cattle; so the Nation will survive
  
Crying tears of pride
 
  
For all the fools slaughtered
+
And the demand is a Sacrifice
  
For the maimed, the dying
 
  
And the dead
+
Can you hear the War Cry?
  
So the Nation will live
+
It's time to enlist
  
So the people will remain as cattle.
+
Those too afraid to live, living as cattle
  
 +
The Masses speak as One - they demand a sacrifice
  
 
== Guitar TAB ==
 
== Guitar TAB ==
  
This is the entire song, bass included.  
+
This is the entire song, bass included.
 +
 
 
The bass starts off first and it goes like this:
 
The bass starts off first and it goes like this:
  
G|---------------------------------
+
G|---------------------------------
D|---------7---5-------------------
+
D|---------7---5-------------------
A|-----7-----7---6---6-6---6-6-6-7-   
+
A|-----7-----7---6---6-6---6-6-6-7-
E|-0-------------------------------
+
  E|-0-------------------------------
 +
 
 
  or this
 
  or this
g------------------------------------|
+
 
d------------------------------------|
+
g------------------------------------|
a--------12----10--------------------|
+
d------------------------------------|
e--0--12----12----11-11--11--11--12--|
+
a--------12----10--------------------|
 +
e--0--12----12----11-11--11--11--12--|
  
 
Do this 4 times.
 
Do this 4 times.
 +
  
 
After the feedback part play this 4x (on guitar)
 
After the feedback part play this 4x (on guitar)
  
e--------------------------------------|
+
e--------------------------------------|
b--------------------------------------|
+
b--------------------------------------|
g--9--9--9-9-9-9--9--8--8--8-8-8-8--8--|
+
g--9--9--9-9-9-9--9--8--8--8-8-8-8--8--|
d--9--9--9-9-9-9--9--8--8--8-8-8-8--8--|
+
d--9--9--9-9-9-9--9--8--8--8-8-8-8--8--|
a--7--7--7-7-7-7--7--6--6--6-6-6-6--6--|
+
a--7--7--7-7-7-7--7--6--6--6-6-6-6--6--|
e--------------------------------------|
+
e--------------------------------------|
  
  
play this 4 times, then play the bass riff 5 more times.  
+
Then play the bass riff 5 more times.
 +
 
 
Then the guitar riff 9 more times.  
 
Then the guitar riff 9 more times.  
Then go the bass part about 25 more times.
+
 
 +
Then the bass part about 25 more times.

Latest revision as of 00:52, 25 August 2009

"Sacrifice" (Flipper) – 6:07

The original version appears on Flipper's 1984 LP Gone Fishin' and also appears on the 1988 LP Sex Bomb, Baby!

Melvins version originally from Lysol, 1992 on Boner Records.

Lyrics

Can you hear the War Cry?

It's time to enlist

The People speak as One

The Cattle; the Crowd


Those too afraid to live demand a Sacrifice

Of your life


Can you smell their stinking breath?

Listen to them wheezing and gasping and

Chanting their slogans


It's a gravedigger's song, praising God & State

So the Nation will live; so we all can remain as cattle


They demand a Sacrifice

Of your life


[Flipper's version]:


Can you hear the War Cry?

It's time to enlist

The People speak as One

The Cattle; the Crowd


Those too afraid to live demand a Sacrifice


Can you hear them wheezing?

Listen to them, chanting their slogans


It's a gravedigger's song, demanding a Sacrifice


Can you see the fresh blood steaming from the soil?

As our fathers and mothers

Our Patriots and lovers

Admire the Military style; Praising God and State

So the Nation can remain cattle; so the Nation will survive


And the demand is a Sacrifice


Can you hear the War Cry?

It's time to enlist

Those too afraid to live, living as cattle

The Masses speak as One - they demand a sacrifice

Guitar TAB

This is the entire song, bass included.

The bass starts off first and it goes like this:

G|---------------------------------
D|---------7---5-------------------
A|-----7-----7---6---6-6---6-6-6-7-
E|-0-------------------------------
or this
g------------------------------------|
d------------------------------------|
a--------12----10--------------------|
e--0--12----12----11-11--11--11--12--|

Do this 4 times.


After the feedback part play this 4x (on guitar)

e--------------------------------------|
b--------------------------------------|
g--9--9--9-9-9-9--9--8--8--8-8-8-8--8--|
d--9--9--9-9-9-9--9--8--8--8-8-8-8--8--|
a--7--7--7-7-7-7--7--6--6--6-6-6-6--6--|
e--------------------------------------|


Then play the bass riff 5 more times.

Then the guitar riff 9 more times.

Then the bass part about 25 more times.