Teet

From MelvinsWiki
Jump to: navigation, search

"Teet" (Melvins) – 2:51

Originally released on Houdini, 1993.

Lyrics

I've seen a friend go ride you host away the peel

My leavin bedroom for my carvin wheel

Joke Mister join the Navy ain't so sad in awe

Half of the jay gone century cat the call


Toast no indee gone aim no want to be a ray

She's not afraid to fear more chaste with me

Ask not and you won't find it ride


Actin like over gentry

Maybe you're in hair

Ace like a big and hairy happy sad


Toast no indee gone aim no want to be a ray

She's not afraid to fear more chaste with me

Ask not and you won't find it ride


Guitar Tab

tabbed by John Lavey
 
Remarks: there is drop D tuning, the bass is arranged for guitar

         x= muted

 
d--x-x-x-x-x---x--------|x-x-x-x-x---x-------|

a--x-x-x-x-x-9-x-15---|x-x-x-x-x-9-x-15--|

d--x-x-x-x-x-9-x-15---|x-x-x-x-x-9-x-15--| Then theres a bunch of feedback for 4 bars





d-------------------------------------------|

a--10-10-10--13-13--7-7--9-9-9-9-7-9-7-9-7--|

d--10-10-10--13-13--7-7--9-9-9-9-7-9-7-9-7--| play this twice then, do it this way:



d----------------------------------------------------------|

a--10-10-10--13-13--7-7-9-9-9-9-7--3-3-3----|

d--10-10-10--13-13--7-7-9-9-9-9-7--3-3-3/15| 



d------------------------------|

a--7-9-9-9-9-7--3-3------| after that do this twice, then the bass plays

d--7-9-9-9-9-7--3-3/15--|

  



d----------------------------------------------------------|

a--10-10-10--13-13--7-7-9-9-9-9-7-9-7-9-7--| do this twice 

d--10-10-10--13-13--7-7-9-9-9-9-7-9-7-9-7--|



d-----------------------------------------------------------------------|

a--10-10-10-13-13--7-7-7-7-7-7--x-x-x-x-x-x-9-x-----x-x-x-x-x-x-9-x-----|

d--10-10-10-13-13--7-7-7-7-7-7--x-x-x-x-x-x-9-x-15--x-x-x-x-x-x-9-x-15--|