Difference between revisions of "The Brain Center At Whipples"

From MelvinsWiki
Jump to: navigation, search
(Guitar Tab)
(Guitar Tab)
Line 25: Line 25:
  
 
== Guitar Tab ==
 
== Guitar Tab ==
**UPDATED DECEMBER 2005**
+
**UPDATED DECEMBER 2005
  
 
Drop-D Tuning
 
Drop-D Tuning
Line 31: Line 31:
 
    
 
    
 
Riff 1: (play 3X)
 
Riff 1: (play 3X)
  1  +  2  +  3  +  4  +    1  +  2  +  3  +  4  +   
+
  1  +  2  +  3  +  4  +    1  +  2  +  3  +  4  +   
b---------------------------------|---------------------------------|
+
e||---------------------------------|---------------------------------||
g---------------------------------|---------------------------------|
+
b||---------------------------------|---------------------------------||
d---------------------------------|---------------------------------|
+
g||---------------------------------|---------------------------------||
a---------5-----------------------|---------------------------------|
+
d||---------------------------------|---------------------------------||
d-0---0---------0-0-0-3-0-0-5-0-0-|-6---0-0-1-0-0---0-0-1h0-3h0-3h0-|
+
a||---------5-----------------------|---------------------------------||
  .  .  .    . . . . . . . . .  .  . . . . .  . . . . . . . .
+
d||-0---0---------0-0-0-3-0-0-5-0-0-|-6---0-0-1-0-0---0-0-1h0-3h0-3h0-||
 +
    .  .  .    . . . . . . . . .  .  . . . . .  . . . . . . . .
  
 
Then:
 
Then:
b---------------------------------|---------------------------------|
+
e---------------------------------|---------------------------------|
g---------7-----7-----------------|---------7-----7-----------------|
+
b---------------------------------|---------------------------------|
d---------7-----7-----------------|---------7-----7-----------------|
+
g---------7-----7-----------------|---------7-----7-----------------|
a---------5-----5-----------------|---------5-----5-----------------|
+
d---------7-----7-----------------|---------7-----7-----------------|
d-0---0-----------0-0-0---0---0---|-----0-----------0-0-0---0---0---|
+
a---------5-----5-----------------|---------5-----5-----------------|
  .  .          . . .  .  .        .          . . .  .  .
+
d-0---0-----------0-0-0---0---0---|-----0-----------0-0-0---0---0---|
 +
  .  .          . . .  .  .        .          . . .  .  .
  
 
Play this 2X:
 
Play this 2X:
b---------------------------------|---------------------------------|
+
e||---------------------------------|---------------------------------||
g---------------------------------|---------------------------------|
+
b||---------------------------------|---------------------------------||
d---------------------------------|---------------------------------|
+
g||---------------------------------|---------------------------------||
a-5-5-5-5-5-5-5-5-5-5-5-5-5-5-5-5-|-5-5-5-5-5-5-5-5-5-5-5-5-5-5-5-5-|
+
d||---------------------------------|---------------------------------||
d---------------------------------|---------------------------------|
+
a||-5-5-5-5-5-5-5-5-5-5-5-5-5-5-5-5-|-5-5-5-5-5-5-5-5-5-5-5-5-5-5-5-5-||
  . . . . . . . . . . . . . . . .  . . . . . . . . . . . . . . . .
+
d||---------------------------------|---------------------------------||
 +
    . . . . . . . . . . . . . . . .  . . . . . . . . . . . . . . . .
  
 
Riff 2: (2X)
 
Riff 2: (2X)
b---------------------------------|---------------------------------
+
e||---------------------------------|---------------------------------|
g-7--7--7-----7-------------------|-5--5--5-----5-------------------
+
b||---------------------------------|---------------------------------|
d-7--7--7-----7-------------------|-5--5--5-----5-------------------
+
g||-7--7--7-----7-------------------|-5--5--5-----5-------------------|
a-5--5--5-----5-------------------|-3--3--3-----3-------------------
+
d||-7--7--7-----7-------------------|-5--5--5-----5-------------------|
d---------------------------------|---------------------------------
+
a||-5--5--5-----5-------------------|-3--3--3-----3-------------------|
 +
d||---------------------------------|---------------------------------|
  
b---------------------------------|---------------------------------|
+
e---------------------------------|---------------------------------||
g---------------------------------|-----------------------------3---|
+
b---------------------------------|---------------------------------||
d---------------------------------|-----------------------------3---|
+
g---------------------------------|-----------------------------3---||
a-------------------1-----3---1---|-3-----4-----5-----3---5p3h5-----|
+
d---------------------------------|-----------------------------3---||
d-3----4------5-------------------|---------------------------------|
+
a-------------------1-----3---1---|-3-----4-----5-----3---5p3h5-----||
 +
d-3----4------5-------------------|---------------------------------||
  
 
+
"Pre-Verse Riff": (5X)
Pre-Verse: (5X)
+
e||---------------------------------||
b---------------------------------|
+
b||---------------------------------||
g---------------------------------|
+
g||---------------------------------||
d---------------------------------|
+
d||---------------------------------||
a-5---5-5-5-5---5-5-5-5-5-5-5-5-5-|
+
a||-5---5-5-5-5---5-5-5-5-5-5-5-5-5-||
d---------------------------------|
+
d||---------------------------------||
  .  . . . .  . . . . . . . . .
+
    .  . . . .  . . . . . . . . .
  
 
Verse: (11X)
 
Verse: (11X)
b---------------------------------|
+
e||---------------------------------||
g---------------------------------|
+
b||---------------------------------||
d---------------------------------|
+
g||---------------------------------||
a-5---5---5-5-5-5-----5-5-5-5-5-5-|
+
d||---------------------------------||
d-0---0---0-0-0-0-----0-0-0-0-0-0-|
+
a||-5---5---5-5-5-5-----5-5-5-5-5-5-||
  .  .  . . . .    . . . . . .  
+
d||-0---0---0-0-0-0-----0-0-0-0-0-0-||
 +
    .  .  . . . .    . . . . . .  
  
 
Then do this 3X:
 
Then do this 3X:
 +
e||---------------------------------||
 +
b||---------------------------------||
 +
g||-7---7---------------------------||
 +
d||-7---7---------------------------||
 +
a||-5---5---------------------------||
 +
d||---------------------------------||
  
b---------------------------------|
+
Then play "Pre-Verse Riff" (4X)
g-7---7---------------------------|
+
And Riff 2 (3X)
d-7---7---------------------------|
 
a-5---5---------------------------|
 
d---------------------------------|
 
 
 
 
 
Then back to Pre-Verse 4X
 
And back to Riff 2 3X
 
 
 
  
 
Then this 3X:
 
Then this 3X:
b---------------------------------|
+
e||---------------------------------||
g-------3-------------------------|
+
b||---------------------------------||
d-------3-------------------------|
+
g||-------3-------------------------||
a-5p3h5---------------------------|
+
d||-------3-------------------------||
d---------------------------------|
+
a||-5p3h5---------------------------||
 +
d||---------------------------------||
  
Then:
+
Pre-Solo sequence:
b---------------------------------|---------------------------------
+
e---------------------------------|---------------------------------|
g---------------------------------|---------------------------------
+
b---------------------------------|---------------------------------|
d-0-----------3-------------------|---------------------------------
+
g---------------------------------|---------------------------------|
a-0-----------3-------------------|---------------------------------
+
d-0-----------3-------------------|---------------------------------|
d-0-----------3-------------------|---------------------------------
+
a-0-----------3-------------------|---------------------------------|
 +
d-0-----------3-------------------|---------------------------------|
  
b---------------------------------|---------------------------------|
+
e---------------------------------|---------------------------------|
g-7-----------10------------------|---------------------------------|
+
b---------------------------------|---------------------------------|
d-7-----------10------------------|---------------------------------|
+
g-7-----------10------------------|---------------------------------|
a-5-----------8-------------------|---------------------------------|
+
d-7-----------10------------------|---------------------------------|
d---------------------------------|---------------------------------|
+
a-5-----------8-------------------|---------------------------------|
 +
d---------------------------------|---------------------------------|
  
 +
Solo a):
 +
  1  +  2  +  3  +  4  +    1  +  2  +  3  +  4  + 
 +
e---------------------------------|---------------------------------|
 +
b---------------------------------|---------------------------------|
 +
g-10b-----------------------------|-10------------------------------|
 +
d-------------8~~-----------------|----9----------------------------|
 +
a---------------------------------|---------------------------------|
 +
d---------------------------------|---------------------------------|
  
Solo a:
+
b---------------------------------|
  1  +  2  +  3  +  4  +    1  +  2  +  3  +  4  + 
+
g-7-------------------------------|
b---------------------------------|---------------------------------
+
d-7-------------------------------|
g-10b-----------------------------|-10------------------------------
+
a-5-------------------------------|
d-------------812:55, 1 November 2009 (UTC)12:55, 1 November 2009 (UTC)12:55, 1 November 2009 (UTC)~~--|----9----------------------------
+
d---------------------------------|
a---------------------------------|---------------------------------
 
d---------------------------------|---------------------------------
 
  
b---------------------------------|
+
Fill a):
g-7-------------------------------|
+
  1  +  2  +  3  +  4  +    1  +  2  +  3  +  4  + 
d-7-------------------------------|
+
e---------------------------------|---------------------------------|
a-5-------------------------------|
+
b---------------------------------|---------------------------------|
d---------------------------------|
+
g---------------------------------|---------------------------------|
 +
d---------------------------------|---------------------------------|
 +
a-------------------------3---5---|---------------------------------|
 +
d-6-----5---------5---3-----------|-5---7---5---2---3-----2---------|
  
 +
e---------------------------------|---------------------------------|
 +
b---------------------------------|---------------------------------|
 +
g---------------------------------|---------------------------------|
 +
d---------------------------------|---------------------------------|
 +
a---------1---------------3-------|-3---1---3-------1---------------|
 +
d-3---2-----------5---3-----------|---------------------0-0-0-0-0-0-|
 +
                                                        . . . . . .
  
Fill a:
+
Solo b):
  1  +  2  +  3  +  4  +    1  +  2  +  3  +  4  +   
+
  1  +  2  +  3  +  4  +    1  +  2  +  3  +  4  +   
b---------------------------------|---------------------------------
+
e---------------------------------|---------------------------------|
g---------------------------------|---------------------------------
+
b---------------------------------|---------------------------------|
d---------------------------------|---------------------------------
+
g---------------------------------|---------------------------------|
a-------------------------3---5---|---------------------------------
+
d-------------7r------------------|-------------------------6-------|
d-6-----5---------5---3-----------|-5---7---5---2---3-----2---------
+
a-5-------------------------------|---------------------------------|
 
+
d---------------------------------|---------------------------------|
b---------------------------------|---------------------------------|
 
g---------------------------------|---------------------------------|
 
d---------------------------------|---------------------------------|
 
a---------1---------------3-------|-3---1---3-------1---------------|
 
d-3---2-----------5---3-----------|---------------------0-0-0-0-0-0-|
 
                                                        . . . . . .
 
  
Solo b:
+
e---------------------------------|---------------------------------|
  1  +  2  +  3  +  4  +    1  +  2  +  3  +  4  + 
+
b---------------------------------|---------------------------------|
b---------------------------------|---------------------------------
+
g---------------------------------|---------------------------------|
g---------------------------------|---------------------------------
+
d-------------9r------------------|---------------------------------|
d-------------7r------------------|-------------------------6-------
+
a-10------------------------------|---------------------------------|
a-5-------------------------------|---------------------------------
+
d---------------------------------|---------------------------------|
d---------------------------------|---------------------------------
 
  
b---------------------------------|---------------------------------
+
e---------------------------------|---------------------------------|
g---------------------------------|---------------------------------
+
b---------------------------------|---------------------------------|
d-------------9r------------------|---------------------------------
+
g-10------------------9-----------|-10-----------------7------------|
a-10------------------------------|---------------------------------
+
d-10------------------9-----------|-10-----------------7------------|
d---------------------------------|---------------------------------
+
a-8-------------------7-----------|-8------------------5------------|
 +
d---------------------------------|---------------------------------|
  
b---------------------------------|---------------------------------
+
e---------------------------------|---------------------------------|
g-10------------------9-----------|-10-----------------7------------
+
b---------------------------------|---------------------------------|
d-10------------------9-----------|-10-----------------7------------
+
g-10------------------9-----------|-10------------------------------|
a-8-------------------7-----------|-8------------------5------------
+
d-10------------------9-----------|-10------------------------------|
d---------------------------------|---------------------------------
+
a-8-------------------7-----------|-8-------------------------------|
 +
d---------------------------------|---------------------------------|
  
b---------------------------------|---------------------------------|
+
Fill b):
g-10------------------9-----------|-10------------------------------|
+
  1  +  2  +  3  +  4  + 
d-10------------------9-----------|-10------------------------------|
+
e---------------------------------|
a-8-------------------7-----------|-8-------------------------------|
+
b---------------------------------|
d---------------------------------|---------------------------------|
+
g---------------------------------|
 
+
d---------------------------------|
 
+
a-------------------------3-------|
Fill b:
+
d-6-----5---------5---3-----------|
  1  +  2  +  3  +  4  +   
 
b---------------------------------|
 
g---------------------------------|
 
d---------------------------------|
 
a-------------------------3-------|
 
d-6-----5---------5---3-----------|
 
 
   
 
   
  
Solo c:
+
Solo c):
  1  +  2  +  3  +  4  +    1  +  2  +  3  +  4  +   
+
  1  +  2  +  3  +  4  +    1  +  2  +  3  +  4  +   
b---------------------------------|---------------------------------
+
e---------------------------------|---------------------------------|
g---------------------------------|---------------------------------
+
b---------------------------------|---------------------------------|
d-----6---5-------5-------5---5b--|-5---7---7b------5-------5h--5---
+
g---------------------------------|---------------------------------|
a-5-----------7-------5-----------|-------------7-------5-----7-----
+
d-----6---5-------5-------5---5b--|-5---7---7b------5-------5h--5---|
d---------------------------------|---------------------------------
+
a-5-----------7-------5-----------|-------------7-------5-----7-----|
 +
d---------------------------------|---------------------------------|
  
b---------------------------------|---------------------------------
+
e---------------------------------|---------------------------------|
g-7---6---5-------5-------5---6---|-7-------------------------------
+
b---------------------------------|---------------------------------|
d-------------7-------7-----------|---------------------------------
+
g-7---6---5-------5-------5---6---|-7-------------------------------|
a---------------------------------|---------------------------------
+
d-------------7-------7-----------|---------------------------------|
d---------------------------------|---------------------------------
+
a---------------------------------|---------------------------------|
 +
d---------------------------------|---------------------------------|
  
b---------------------------------|---------------------------------
+
e---------------------------------|---------------------------------|
g-9---8---7-------7-------7---8---|-7---6---5-------5-------5-------
+
b---------------------------------|---------------------------------|
d-------------9-------9-----------|-------------7-------7-------7---
+
g-9---8---7-------7-------7---8---|-7---6---5-------5-------5-------|
a---------------------------------|---------------------------------
+
d-------------9-------9-----------|-------------7-------7-------7---|
d---------------------------------|---------------------------------
+
a---------------------------------|---------------------------------|
 +
d---------------------------------|---------------------------------|
  
b---------------------------------|----------------------------------
+
e---------------------------------|---------------------------------|
g-5---7---5-------5---------------|---------7br----------------------
+
b---------------------------------|---------------------------------|
d-------------7-------7---6---5---|---------7br----------------------
+
g-5---7---5-------5---------------|---------7br---------------------|
a---------------------------------|-7---6---5br----------------------
+
d-------------7-------7---6---5---|---------7br---(Ring)------------|
d---------------------------------|----------------------------------
+
a---------------------------------|-7---6---5br---------------------|
 
+
d---------------------------------|---------------------------------|
b---------------------------------|
 
g---------------------------------|
 
d---------------------------------|
 
a---------------------------------|
 
d---------------------------------|
 
  
 +
e---------------------------------|
 +
b---------------------------------|
 +
g---------------------------------|
 +
d---(Ring)------------------------|
 +
a---------------------------------|
 +
d---------------------------------|
  
 
Riff 3: (2X)
 
Riff 3: (2X)
b---------------------------------|---------------------------------
+
e||---------------------------------|---------------------------------|
g-7-----------7-----------7-------|-3-----3-----3-------------------
+
b||---------------------------------|---------------------------------|
d-7-----------7-----------7-------|-3h5---3h5---3h5-----------------
+
g||-7-----------7-----------7-------|-3-----3-----3-------------------|
a-5-----------5-----------5-------|-3-----3-----3-------------------
+
  d||-7-----------7-----------7-------|-3h5---3h5---3h5-----------------|
d---------------------------------|---------------------------------
+
a||-5-----------5-----------5-------|-3-----3-----3-------------------|
   
+
d||---------------------------------|---------------------------------|
b---------------------------------|---------------------------------|
 
g---------------------------------|---------------------------------|
 
d---------------------------------|-----------------7---------------|
 
a-3h5-5-4-----3---5---------------|-3h5-5-4-----3-----------7-------|
 
d---------------------------------|---------------------------------|
 
  
 +
e---------------------------------|---------------------------------||
 +
b---------------------------------|---------------------------------||
 +
g---------------------------------|---------------------------------||
 +
d---------------------------------|-----------------7---------------||
 +
a-3h5-5-4-----3---5---------------|-3h5-5-4-----3-----------7-------||
 +
d---------------------------------|---------------------------------||
  
 
Outro (12X) - Gradually build speed:
 
Outro (12X) - Gradually build speed:
b---------------------------------|---------------------------------|
+
e||---------------------------------|---------------------------------||
g---------7-----------------------|---------------------------------|
+
b||---------------------------------|---------------------------------||
d---------7-----------------------|---------------------------------|
+
g||---------7-----------------------|---------------------------------||
a---------5-----------------------|---------------------------------|
+
d||---------7-----------------------|---------------------------------||
d-0---0---------0-0-0-3-0-0-5-0-0-|-6---0-0-1-0-0---0-0-1h0-3h0-3h0-|
+
a||---------5-----------------------|---------------------------------||
  .  .        . . . . . . . . .  .  . . . . .  . . . . . . . .
+
d||-0---0---------0-0-0-3-0-0-5-0-0-|-6---0-0-1-0-0---0-0-1h0-3h0-3h0-||
 
+
    .  .        . . . . . . . . .  .  . . . . .  . . . . . . . .
  
 
End on this:     
 
End on this:     
b---------------------------------|
+
b---------------------------------|
g---------7-----------------------|
+
g---------7-----------------------|
d---------7-----------------------|
+
d---------7-----------------------|
a---------5-----------------------|
+
a---------5-----------------------|
d-0---0---------------------------|
+
d-0---0---------------------------|
  .  .
+
  .  .
 
[[Category: Lyrics]]
 
[[Category: Lyrics]]
 
[[Category: Tablature]]
 
[[Category: Tablature]]

Revision as of 13:08, 1 November 2009

"The Brain Center At Whipples" (Osborne) – 3:50

Released as a single and on Hostile Ambient Takeover, 2002.

Lyrics

Where is my fortune?
It's in my forced reaction
Doesn't one hand help me read now?
Doesn't one hand help the other one?
Put down the wild
Cooking like the face of banality
I've got it in my brain now
I've got it in my center


What are you talking about?
You started loud
So am I


Is it my mormon?
Is it my head?
I hide up with my motor
And hide up with my hot gun

Guitar Tab

    • UPDATED DECEMBER 2005

Drop-D Tuning


Riff 1: (play 3X)

  1   +   2   +   3   +   4   +     1   +   2   +   3   +   4   +   
e||---------------------------------|---------------------------------||
b||---------------------------------|---------------------------------||
g||---------------------------------|---------------------------------||
d||---------------------------------|---------------------------------||
a||---------5-----------------------|---------------------------------||
d||-0---0---------0-0-0-3-0-0-5-0-0-|-6---0-0-1-0-0---0-0-1h0-3h0-3h0-||
    .   .   .     . . . . . . . . .   .   . . . . .   . . . . . . . .

Then:

e---------------------------------|---------------------------------|
b---------------------------------|---------------------------------|
g---------7-----7-----------------|---------7-----7-----------------|
d---------7-----7-----------------|---------7-----7-----------------|
a---------5-----5-----------------|---------5-----5-----------------|
d-0---0-----------0-0-0---0---0---|-----0-----------0-0-0---0---0---|
  .   .           . . .   .   .         .           . . .   .   .

Play this 2X:

e||---------------------------------|---------------------------------||
b||---------------------------------|---------------------------------||
g||---------------------------------|---------------------------------||
d||---------------------------------|---------------------------------||
a||-5-5-5-5-5-5-5-5-5-5-5-5-5-5-5-5-|-5-5-5-5-5-5-5-5-5-5-5-5-5-5-5-5-||
d||---------------------------------|---------------------------------||
    . . . . . . . . . . . . . . . .   . . . . . . . . . . . . . . . .

Riff 2: (2X)

e||---------------------------------|---------------------------------|
b||---------------------------------|---------------------------------|
g||-7--7--7-----7-------------------|-5--5--5-----5-------------------|
d||-7--7--7-----7-------------------|-5--5--5-----5-------------------|
a||-5--5--5-----5-------------------|-3--3--3-----3-------------------|
d||---------------------------------|---------------------------------|
e---------------------------------|---------------------------------||
b---------------------------------|---------------------------------||
g---------------------------------|-----------------------------3---||
d---------------------------------|-----------------------------3---||
a-------------------1-----3---1---|-3-----4-----5-----3---5p3h5-----||
d-3----4------5-------------------|---------------------------------||

"Pre-Verse Riff": (5X)

e||---------------------------------||
b||---------------------------------||
g||---------------------------------||
d||---------------------------------||
a||-5---5-5-5-5---5-5-5-5-5-5-5-5-5-||
d||---------------------------------||
    .   . . . .   . . . . . . . . .

Verse: (11X)

e||---------------------------------||
b||---------------------------------||
g||---------------------------------||
d||---------------------------------||
a||-5---5---5-5-5-5-----5-5-5-5-5-5-||
d||-0---0---0-0-0-0-----0-0-0-0-0-0-||
    .   .   . . . .     . . . . . . 

Then do this 3X:

e||---------------------------------||
b||---------------------------------||
g||-7---7---------------------------||
d||-7---7---------------------------||
a||-5---5---------------------------||
d||---------------------------------||

Then play "Pre-Verse Riff" (4X) And Riff 2 (3X)

Then this 3X:

e||---------------------------------||
b||---------------------------------||
g||-------3-------------------------||
d||-------3-------------------------||
a||-5p3h5---------------------------||
d||---------------------------------||

Pre-Solo sequence:

e---------------------------------|---------------------------------|
b---------------------------------|---------------------------------|
g---------------------------------|---------------------------------|
d-0-----------3-------------------|---------------------------------|
a-0-----------3-------------------|---------------------------------|
d-0-----------3-------------------|---------------------------------|
e---------------------------------|---------------------------------|
b---------------------------------|---------------------------------|
g-7-----------10------------------|---------------------------------|
d-7-----------10------------------|---------------------------------|
a-5-----------8-------------------|---------------------------------|
d---------------------------------|---------------------------------|

Solo a):

  1   +   2   +   3   +   4   +     1   +   2   +   3   +   4   +   
e---------------------------------|---------------------------------|
b---------------------------------|---------------------------------|
g-10b-----------------------------|-10------------------------------|
d-------------8~~-----------------|----9----------------------------|
a---------------------------------|---------------------------------|
d---------------------------------|---------------------------------|
b---------------------------------|
g-7-------------------------------|
d-7-------------------------------|
a-5-------------------------------|
d---------------------------------|

Fill a):

  1   +   2   +   3   +   4   +     1   +   2   +   3   +   4   +   
e---------------------------------|---------------------------------|
b---------------------------------|---------------------------------|
g---------------------------------|---------------------------------|
d---------------------------------|---------------------------------|
a-------------------------3---5---|---------------------------------|
d-6-----5---------5---3-----------|-5---7---5---2---3-----2---------|
e---------------------------------|---------------------------------|
b---------------------------------|---------------------------------|
g---------------------------------|---------------------------------|
d---------------------------------|---------------------------------|
a---------1---------------3-------|-3---1---3-------1---------------|
d-3---2-----------5---3-----------|---------------------0-0-0-0-0-0-|
                                                        . . . . . .

Solo b):

  1   +   2   +   3   +   4   +     1   +   2   +   3   +   4   +   
e---------------------------------|---------------------------------|
b---------------------------------|---------------------------------|
g---------------------------------|---------------------------------|
d-------------7r------------------|-------------------------6-------|
a-5-------------------------------|---------------------------------|
d---------------------------------|---------------------------------|
e---------------------------------|---------------------------------|
b---------------------------------|---------------------------------|
g---------------------------------|---------------------------------|
d-------------9r------------------|---------------------------------|
a-10------------------------------|---------------------------------|
d---------------------------------|---------------------------------|
e---------------------------------|---------------------------------|
b---------------------------------|---------------------------------|
g-10------------------9-----------|-10-----------------7------------|
d-10------------------9-----------|-10-----------------7------------|
a-8-------------------7-----------|-8------------------5------------|
d---------------------------------|---------------------------------|
e---------------------------------|---------------------------------|
b---------------------------------|---------------------------------|
g-10------------------9-----------|-10------------------------------|
d-10------------------9-----------|-10------------------------------|
a-8-------------------7-----------|-8-------------------------------|
d---------------------------------|---------------------------------|

Fill b):

 1   +   2   +   3   +   4   +   
e---------------------------------|
b---------------------------------|
g---------------------------------|
d---------------------------------|
a-------------------------3-------|
d-6-----5---------5---3-----------|

Solo c):

  1   +   2   +   3   +   4   +     1   +   2   +   3   +   4   +   
e---------------------------------|---------------------------------|
b---------------------------------|---------------------------------|
g---------------------------------|---------------------------------|
d-----6---5-------5-------5---5b--|-5---7---7b------5-------5h--5---|
a-5-----------7-------5-----------|-------------7-------5-----7-----|
d---------------------------------|---------------------------------|
e---------------------------------|---------------------------------|
b---------------------------------|---------------------------------|
g-7---6---5-------5-------5---6---|-7-------------------------------|
d-------------7-------7-----------|---------------------------------|
a---------------------------------|---------------------------------|
d---------------------------------|---------------------------------|
e---------------------------------|---------------------------------|
b---------------------------------|---------------------------------|
g-9---8---7-------7-------7---8---|-7---6---5-------5-------5-------|
d-------------9-------9-----------|-------------7-------7-------7---|
a---------------------------------|---------------------------------|
d---------------------------------|---------------------------------|
e---------------------------------|---------------------------------|
b---------------------------------|---------------------------------|
g-5---7---5-------5---------------|---------7br---------------------|
d-------------7-------7---6---5---|---------7br---(Ring)------------|
a---------------------------------|-7---6---5br---------------------|
d---------------------------------|---------------------------------|
e---------------------------------|
b---------------------------------|
g---------------------------------|
d---(Ring)------------------------|
a---------------------------------|
d---------------------------------|

Riff 3: (2X)

e||---------------------------------|---------------------------------|
b||---------------------------------|---------------------------------|
g||-7-----------7-----------7-------|-3-----3-----3-------------------|
d||-7-----------7-----------7-------|-3h5---3h5---3h5-----------------|
a||-5-----------5-----------5-------|-3-----3-----3-------------------|
d||---------------------------------|---------------------------------|
e---------------------------------|---------------------------------||
b---------------------------------|---------------------------------||
g---------------------------------|---------------------------------||
d---------------------------------|-----------------7---------------||
a-3h5-5-4-----3---5---------------|-3h5-5-4-----3-----------7-------||
d---------------------------------|---------------------------------||

Outro (12X) - Gradually build speed:

e||---------------------------------|---------------------------------||
b||---------------------------------|---------------------------------||
g||---------7-----------------------|---------------------------------||
d||---------7-----------------------|---------------------------------||
a||---------5-----------------------|---------------------------------||
d||-0---0---------0-0-0-3-0-0-5-0-0-|-6---0-0-1-0-0---0-0-1h0-3h0-3h0-||
    .   .         . . . . . . . . .   .   . . . . .   . . . . . . . .

End on this:

b---------------------------------|
g---------7-----------------------|
d---------7-----------------------|
a---------5-----------------------|
d-0---0---------------------------|
  .   .